Song name
# A B C D E F G H I J K L M N O P Q R S T U V W X Y Z

Unearth - Zombie Autopilot tab

------------------------------------------------------------------------------
			     Zombie Autopilot - Unearth
-------------------------------------------------------------------------------
Tabbed by:--{matt}--
Email: mbise1993@gmail.com

Tuning: B Standard on a 7 string (but it can be played in E standard on a 6)

Buzz McGrath's solo
e|---------------------------------------------------------------------------|
B|---------------------------------------------------------------------------|
G|-----------------------------------------------------------------------9---|
D|--9~-11-12-11h12p11p9----9~-11-12-11h12p11p9----9~-11-12-11h12p11p9------12|
A|10--------------------10---------------------10---------------------12-----|
E|---------------------------------------------------------------------------|



e|--------------------------------------------------------14~~-15-12-14----12|
B|-----------------------------------------------------12~--------------15---|
G|-------------------------------------9-11-12-9-11-12-----------------------|
D|-11~-----------------9-11-12-9-11-12---------------------------------------|
A|-----9-10-12-9-10-12-------------------------------------------------------|
E|---------------------------------------------------------------------------|


         T          T          T          T           T        T           T 
e|---------------------------------------------------------------------------|
B|---------------------------------------------------------------------------|
G|-14^br---------------------------------------------------------------------|
D|-------14p12p9h12-16p12p9h12-14p12p9h12-16p12p9h12-14p12p9h12-16p12p9h12-14|
A|---------------------------------------------------------------------------|
E|---------------------------------------------------------------------------|


           T       
e|---------------------------------------------------------------------------|
B|---------------------------------------------------------------------------|
G|---------------------------------------------------------------------------|
D|p12p9h12-16p12p9h12-12h14p12-11h12p11-9h11p9-11h12p11-11-12-14-12-11-----11|
A|----------------------------------------------------------------------12---|
E|---------------------------------------------------------------------------|

Buzz McGrath's harmony
e|---------------------------------------------------------------------------|
B|---------------------------------------------------------------------------|
G|---------------------------------------------------------------------------|
D|-9~~-9-11-12-16~-14-12-11-9~~-9-11-12-16~-14-12-11-------------------------|
A|---------------------------------------------------------------------------|
E|---------------------------------------------------------------------------|

Ken Susi's Harmony
e|---------------------------------------------------------------------------|
B|---------------------------------------------------------------------------|
G|-7~~-7-9-10-14~-12-10-9-7~~-7-9-10-14~-12-10-9-----------------------------|
D|---------------------------------------------------------------------------|
A|---------------------------------------------------------------------------|
E|---------------------------------------------------------------------------|

Ken Susi's Solo
e|------------------7-10p7h10p7---7h10p7h10p7h10p7---------/17-/15\-17p14----|
B|-10---10---------------------10-----------------10-10^b-----------------17-|
G|--9^b----9^b-9~~-----------------------------------------------------------|
D|---------------------------------------------------------------------------|
A|---------------------------------------------------------------------------|
E|---------------------------------------------------------------------------|
                      T (hold bend on 17 then tap on 20 & pull off to 17)
e|---------------------------------------------------------------------------|
B|-15-17-19-17~-17^b-20p17br17~~---------------------------------------------|
G|-----------------------------------4p0-6^br-4p0-7^br-6-7-9-11~-9-7---------|
D|---------------------------------9~--------------------------------9~~-9~--|
A|---------------------------------------------------------------------------|
E|---------------------------------------------------------------------------|

e|-----/9--10-12~-10-12-14~-12-14-15~-14-15-17~-15-17-17^b-------------------|
B|-12~-----------------------------------------------------------------------|
G|---------------------------------------------------------------------------|
D|---------------------------------------------------------------------------|
A|---------------------------------------------------------------------------|
E|---------------------------------------------------------------------------|


************************************

| /   slide up
| \   slide down
| h   hammer-on
| p   pull-off
| ~   hold note
| +   harmonic
| x   Mute note
| b   Bend
| pb  Pre-bend
| br  Bend release
| pbr Pre-bend release
| brb Bend release bend

************************************
Tap to rate this tab
# A B C D E F G H I J K L M N O P Q R S T U V W X Y Z