Song name
# A B C D E F G H I J K L M N O P Q R S T U V W X Y Z

Unearth - Chosen tab

Tabbed by: Joshua Garcia (halofreak731@aol.com)

Tabs for the song: The Chosen by Unearth
Please rate and let me know if you have any corrections. Thank you.


Tuning: 7-String Standard (B E A D G B E)


Intro
Guitar 1/2:
E||--------------------------------|
B||--------------------------------|
G||--------------------------------|
D||--------------------------------|
A||--------------------------------|
E||---9~------9~------9~------9~---|
B||---7~------7~------7~------7~---|



Verse
Guitar 1/2:
E||---------------------------------------------------------------------------|
B||---------------------------------------------------------------------------|
G||---------------------------------------------------------------------------|
D||---------------------------------------------------------------------------|
A||--------------7-9--7-7--7-10-9-7-10-10--9-9--7-7---10--9-7-----------------|
E||---9~---9-7-9-5-7--5-5--5-8--7-5-8--8---7-7--5-5---8---7-5-9-9-------------|
B||---7~---7-5-7----------------------------------------------7-7-7-7-7-7-7---|
                                                                  . . . . .

E||------------------------------------------------|
B||------------------------------------------------|
G||------------------------------------------------|
D||------------------------------------------------| x2
A||--------------7-9---------7-----10--9--7--9-7---|
E||---9~---9-7-9-5-7---7-8-9-5--9--8---7--5--7-5---|
B||---7~---7-5-7-------5-6-7----7------------------|



Chorus
Guitar 1/2:
E||----------------------------------------------------------------------------|
B||----------------------------------------------------------------------------|
G||----------------------------------------------------------------------------|
D||----------------------------------------------------------------------------|
A||--------------------7/9----10---9-------------------------------7~----------|
E||---9~--9-9-7-7-7-7--5/7----8----7-------------------------7-7-7-5~-----10---|
B||---7~--7-7-5-5-5-5------x-----x---x--10~--10h12p10\7--7~--5-5-5-----x--8----|
              . . . .                                        . . .

E||-----------------------------------------------------------|
B||-----------------------------------------------------------|
G||-----------------------------------------------------------|
D||-----------------------------------------------------------|
A||--------------------7/9----10---9--------------------------|
E||---9~--9-9-7-7-7-7--5/7----8----7--------------------------|
B||---7~--7-7-5-5-5-5------x-----x---x--10~--10h12p10\7--7~---|
              . . . .


Guitar 1:
E||-------------------|
B||-------------------|
G||-------------------|
D||-------------------|
A||-------------------|
E||--7-8--------------|
B||------10-8-10-8-7--|
     . . .  . .  . .

Guitar 2:
E||-------------------|
B||-------------------|
G||-------------------|
D||-------------------| (Repeat all x2)
A||--9-10-9-7-9-------|
E||-------------10----|
B||-------------------|
     . .  . . . .



Verse
Guitar 1/2:
E||---------------------------------------------------------------------------|
B||---------------------------------------------------------------------------|
G||---------------------------------------------------------------------------|
D||---------------------------------------------------------------------------|
A||--------------7-9--7-7--7-10-9-7-10-10--9-9--7-7---10--9-7-----------------|
E||---9~---9-7-9-5-7--5-5--5-8--7-5-8--8---7-7--5-5---8---7-5-9-9-------------|
B||---7~---7-5-7----------------------------------------------7-7-7-7-7-7-7---|
                                                                  . . . . .

E||------------------------------------------------|
B||------------------------------------------------|
G||------------------------------------------------|
D||------------------------------------------------| x2
A||--------------7-9---------7-----10--9--7--9-7---|
E||---9~---9-7-9-5-7---7-8-9-5--9--8---7--5--7-5---|
B||---7~---7-5-7-------5-6-7----7------------------|



Bridge
Guitar 1:
E||----------------------------------------------|-----------------------------------------------|
B||----------------------------------------------|-----------------------------------------------|
G||----------------------------------------------|-------------------------------13----14-13-11--|
D||--------------11----11-10----10-9----9--------|--------------11----11-10\9/12----12-----------|
A||-----------12----12-------11------10---12-10--|-----------12----12----------------------------|
E||--9---9-9-------------------------------------|--9---9-9--------------------------------------|
B||--7---7-7-------------------------------------|--7---7-7--------------------------------------|


E||----------------------------------------------|
B||----------------------------------------------|
G||----------------------------------------------|
D||--------------11----11-10----10-9----9--------|
A||-----------12----12-------11------12---12-10--|
E||--9---9-9-------------------------------------|
B||--7---7-7-------------------------------------|


E||-------------------------------------------------------|
B||-------------------------------------------------------|
G||-------------------------------------------------------|
D||-------------------------------------------------------|
A||--10--9h10p9----------------12--10h12p10-9----9--------|
E||-------------12-10-12-10-9-----------------12---12-11--|
B||-------------------------------------------------------|


Guitar 2:
E||----------------------------------------------|-----------------------------------------------|
B||----------------------------------------------|-----------------------------------------------|
G||----------------------------------------------|-----------------------------------------------|
D||----------------------------------------------|-----------------------------------------------|
A||----------------------------------------------|-----------------------------------------------|
E||--9---9-9-------------------------------------|--9---9-9----------------------------9--10-----|
B||--7---7-7-------------------------------------|--7---7-7----------------------------7--8------|


E||----------------------------------------------|---------------------------|
B||----------------------------------------------|---------------------------|
G||----------------------------------------------|---------------------------|
D||----------------------------------------------|---------------------------|
A||----------------------------------------------|----------------------7~---|
E||--9---9-9-------------------------------------|---5~-----------------5~---|
B||--7---7-7-------------------------------------|---3~----------------------|





Guitar 1:
E||---------------------------------------------|----------------------------------------------|
B||---------------------------------------------|----------------------------------------------|
G||---------------------------------------------|------------------------------13----14-13-11--|
D||-------------11----11-10----10-9----9--------|-------------11----11-10\9/12----12-----------|
A||----------12----12-------11------12---12-10--|----------12----12----------------------------|
E||--9----9-------------------------------------|--9----9--------------------------------------|
B||--7----7-------------------------------------|--7----7--------------------------------------|


E||---------------------------------------------|
B||---------------------------------------------|
G||---------------------------------------------|
D||-------------11----11-10----10-9----9--------|
A||----------12----12-------11------12---12-10--|
E||--9----9-------------------------------------|
B||--7----7-------------------------------------|


E||-------------------------------------------------------|
B||-------------------------------------------------------|
G||-------------------------------------------------------|
D||-------------------------------------------------------|
A||--10--9h10p9----------------12--10h12p10-9----9--------|
E||-------------12-10-12-10-9-----------------12---12-11--|
B||-------------------------------------------------------|


Guitar 2:
E||-----------------------------------|--------------------------------------|
B||-----------------------------------|--------------------------------------|
G||-----------------------------------|--------------------------------------|
D||-----------------------------------|--------------------------------------|
A||-----------------------------------|--------------------------------------|
E||--9---9----------------------------|--9---9---------------------9--11-----|
B||--7---7-7-7-7-7-7-7-7-7-7-7-7-7-7--|--7---7-7-7-7-7-7-7-7-7-7-7-7--9------|
           . . . . . . . . . . . . .           . . . . . . . . . .

E||-----------------------------------|---------------------------|
B||-----------------------------------|---------------------------|
G||-----------------------------------|---------------------------|
D||-----------------------------------|---------------------------|
A||-----------------------------------|----------------------7~---|
E||--9---9----------------------------|---5~-----------------5~---|
B||--7---7-7-7-7-7-7-7-7-7-7-7-7-7-7--|---3~----------------------|
           . . . . . . . . . . . . .





Guitar 1:
E||---------------------------------------------|----------------------------------------------|
B||---------------------------------------------|----------------------------------------------|
G||---------------------------------------------|------------------------------13----14-13-11--|
D||-------------11----11-10----10-9----9--------|-------------11----11-10\9/12----12-----------|
A||----------12----12-------11------12---12-10--|----------12----12----------------------------|
E||--9----9-------------------------------------|--9----9--------------------------------------|
B||--7----7-------------------------------------|--7----7--------------------------------------|


E||---------------------------------------------|
B||---------------------------------------------|
G||---------------------------------------------|
D||-------------11----11-10----10-9----9--------|
A||----------12----12-------11------12---12-10--|
E||--9----9-------------------------------------|
B||--7----7-------------------------------------|


E||-------------------------------------------------------|
B||-------------------------------------------------------|
G||-------------------------------------------------------|
D||-------------------------------------------------------|
A||--10--9h10p9----------------12--10h12p10-9----9--------|
E||-------------12-10-12-10-9-----------------12---12-11--|
B||-------------------------------------------------------|


Guitar 2:
E||---------------------------------------------|-----------------------------------------------|
B||---------------------------------------------|-------------------------------14----15-14-----|
G||-------------11----11-10----10-9----9--------|--------------11----11-10\9/12----12-------12--|
D||----------12----12-------11------12---12-11--|-----------12----12----------------------------|
A||---------------------------------------------|-----------------------------------------------|
E||--9----9-------------------------------------|--9---9-9--------------------------------------|
B||--7----7-------------------------------------|--7---7-7--------------------------------------|


E||---------------------------------------------|
B||---------------------------------------------|
G||-------------11----11-10----10-9----9--------|
D||----------12----12-------11------12---12-11--|
A||---------------------------------------------|
E||--9----9-------------------------------------|
B||--7----7-------------------------------------|


E||---------------------------------------------------|
B||---------------------------------------------------|
G||-----------------------------9--8h9p8--------------|
D||--12--11h12p11-9----9-----------------11-9-11-9-8--|
A||-----------------12---12-11------------------------|
E||---------------------------------------------------|
B||---------------------------------------------------|


Guitar 3:
E||-----------------------------------|--------------------------------------|
B||-----------------------------------|--------------------------------------|
G||-----------------------------------|--------------------------------------|
D||-----------------------------------|--------------------------------------|
A||-----------------------------------|--------------------------------------|
E||--9---9----------------------------|--9---9---------------------9--11-----|
B||--7---7-7-7-7-7-7-7-7-7-7-7-7-7-7--|--7---7-7-7-7-7-7-7-7-7-7-7-7--9------|
           . . . . . . . . . . . . .           . . . . . . . . . .

E||-----------------------------------|---------------------------|
B||-----------------------------------|---------------------------|
G||-----------------------------------|---------------------------|
D||-----------------------------------|---------------------------|
A||-----------------------------------|----------------------7~---|
E||--9---9----------------------------|---5~-----------------5~---|
B||--7---7-7-7-7-7-7-7-7-7-7-7-7-7-7--|---3~----------------------|
           . . . . . . . . . . . . .


Chorus
Guitar 1/2:
E||----------------------------------------------------------------------------|
B||----------------------------------------------------------------------------|
G||----------------------------------------------------------------------------|
D||----------------------------------------------------------------------------|
A||--------------------7/9----10---9-------------------------------7~----------|
E||---9~--9-9-7-7-7-7--5/7----8----7-------------------------7-7-7-5~-----10---|
B||---7~--7-7-5-5-5-5------x-----x---x--10~--10h12p10\7--7~--5-5-5-----x--8----|
              . . . .                                        . . .

E||-----------------------------------------------------------|
B||-----------------------------------------------------------|
G||-----------------------------------------------------------|
D||-----------------------------------------------------------|
A||--------------------7/9----10---9--------------------------|
E||---9~--9-9-7-7-7-7--5/7----8----7--------------------------|
B||---7~--7-7-5-5-5-5------x-----x---x--10~--10h12p10\7--7~---|
              . . . .


Guitar 1:
E||-------------------|
B||-------------------|
G||-------------------|
D||-------------------|
A||-------------------|
E||--7-8--------------|
B||------10-8-10-8-7--|
     . . .  . .  . .

Guitar 2:
E||-------------------|
B||-------------------|
G||-------------------|
D||-------------------| (Repeat all x2)
A||--9-10-9-7-9-------|
E||-------------10----|
B||-------------------|
     . .  . . . .



Pre-Solo
Guitar 1:
E||-----------|---------|-----------|--14--------|
B||-----------|---------|-----------|--17b~--w~--|
G||-----------|--*11w~--|-----------|------------|
D||--*12~--w--|---------|-----------|------------|
A||-----------|---------|-----------|------------|
E||-----------|---------|--/12~--w--|------------|
B||-----------|---------|-----------|------------|


Guitar 2:
E||----------|-----------|-----------|-----------|
B||----------|-----------|-----------|-----------|
G||----------|--17(b)w~--|-----------|-----------|
D||--16~--w--|-----------|-----------|-----------|
A||----------|-----------|-----------|-----------|
E||----------|-----------|--/14~--w--|-----------|
B||----------|-----------|-----------|-----------|


Guitar 3:
E||--------------------------------|
B||--------------------------------|
G||--------------------------------|
D||--------------------------------|
A||--------------------------------|
E||---9~------9~------9~------9~---|
B||---7~------7~------7~------7~---|



Solo
Guitar 2:
E||-----------------------------------------------------------------------------------------------|
B||-----------------------------------------------------------------------------------------------|
G||-----------------------------------------------------------------------------------------------|
D||--/16~---16-19-*19b21r19--17-16--17-16h17p16-----19--------------------------------------------|
A||----------------------------------------------17----17-16-14-16----14--------------------------|
E||----------------------------------------------------------------17----16-17-16-14----14-16-17--|
B||----------------------------------------------------------------------------------17-----------|
                                                                   .     .  .  .  .  .  .  .  .

E||-----------------------------------14-------------------------------14------------|
B||--------------14-17-14----------14----14----------14-17----------14----14---------|
G||-----------14----------14----14----------14----14-------14----14----------14------|
D||--------14----------------14----------------14-------------14----------------14\--|
A||-----16---------------------------------------------------------------------------|
E||--17------------------------------------------------------------------------------|
B||----------------------------------------------------------------------------------|


E||------------------------------------------------------------------------------------------|
B||------------------------------------------------------------------------------------------|
G||--11/16~--17-16-14----14-16-17-16-14----14-16-17-16-14----14-16-17-16-14-16~--14\11--11~--|
D||-------------------16----------------16----------------16---------------------------------|
A||------------------------------------------------------------------------------------------|
E||------------------------------------------------------------------------------------------|
B||------------------------------------------------------------------------------------------|


E||--------------------------------------------------------------------------------------------|
B||--------------------------------------------------------------------------------------------|
G||--------------------------------------------------------------------------------------------|
D||--17-16-14-14~------------------------------------------------------------------------------|
A||----------------17-16-17~--16-14-14--14-17-16-17-14-17----17----17----17----17----17----17--|
E||-------------------------------------------------------17----16----14----------14----16-----|
B||-------------------------------------------------------------------------17-----------------|
                                           .  .  .  .  .  .  .  .  .  .  .  .  .  .  .  .  .

E||--------------------------------------------------------------------------------------|
B||--------------------------------------------------------------------------------------|
G||--------------------14------------------------------------------14--16--18--16-13/14--|
D||--14-16-14--------------18--16--14------------14-16-14--------------------------------|
A||-----------17-16-14----------------17-16---------------17-16-14-----------------------|
E||-----------------------------------------17-------------------------------------------|
B||--------------------------------------------------------------------------------------|


Guitar 1:
E||--------------------------------------------------------------------------------------|
B||--------------------------------------------------------------------------------------|
G||------------------------------------------------------------------------16------------|
D||--------------------16--14--------------------------------------16--18------18-14/16--|
A||--16-17-16-14---------------17--16-14---------16-17-16-14-----------------------------|
E||--------------17-16-------------------17-14---------------17-16-----------------------|
B||--------------------------------------------------------------------------------------|


Guitar 3:
E||------------------------------------------------------|
B||------------------------------------------------------|
G||------------------------------------------------------|
D||------------------------------------------------------| x3
A||------------------------------9-9-x--11-12-12--14-14--|
E||--9-9-x--11-12-1212-12121212--7-7-x--9--10-10--12-12--|
B||--7-7-x--9--10-1010-10101010--------------------------|


E||-----------------------------------------------------------|
B||-----------------------------------------------------------|
G||-----------------------------------------------------------|
D||--16--16161616-14---12--12121212-11--9--99999---7-7---6-6--|
A||--x---x-x-x-x--x----x---x-x-x-x--x---x--xxxxx---x-x---x-x--|
E||--14--14141414-12---10--10101010-9---7--77777---5-5---4-4--|
B||-----------------------------------------------------------|





Guitar 1:
E||--------------------------------------------------------------------------------------|
B||--------------------------------------------------------------------------------------|
G||--------------------------------16-------------16-------------------------------------|
D||--16----------16----18----19----------19-18-19-----19-18-16-18-16----16---------------|
A||-----16-16-15----16----16----16----16-----------------------------19----17-17-19-16~--|
E||--------------------------------------------------------------------------------------|
B||--------------------------------------------------------------------------------------|
        .  .  .     .     .     .     .

E||-----------14-16-17-16-14------------------------------------14---14--------------------|
B||--14-16-17----------------17-16-14---------------------------17b1919-17-15-14h15p14-----|
G||-----------------------------------18-16-14-13-14-16-16b18--------------------------16--|
D||----------------------------------------------------------------------------------------|
A||----------------------------------------------------------------------------------------|
E||----------------------------------------------------------------------------------------|
B||----------------------------------------------------------------------------------------|


E||------------------------------------------------------------|
B||--14-15-17-15-14-------------14----------------14-----------|
G||-----------------16-14-13~------14----------14----14--------|
D||-----------------------------------14----14----------14-----|
A||--------------------------------------16--------------------|
E||--------------------------------------------------------17--|
B||------------------------------------------------------------|


E||---------------------------------------------------------17-16h17p16-14----14-16-17\--|
B||--17-14----------------14-17-14----------------14-19\-------------------14------------|
G||--------14----------14----------14----------14----------------------------------------|
D||-----------14----14----------------14----14-------------------------------------------|
A||--------------16----------------------16----------------------------------------------|
E||--------------------------------------------------------------------------------------|
B||--------------------------------------------------------------------------------------|


E||-------------------------------------------------------------------------------------------|
B||-------------------------------------------------------------------------------------------|
G||--------------------------------16---------------------------------------------------------|
D||--16~------16-18-19~---16-18-19-----19--18--19--18--16--18--16------16---------------------|
A||--------16------------------------------------------------------19------19--18--*19b21~21--|
E||-------------------------------------------------------------------------------------------|
B||-------------------------------------------------------------------------------------------|


Guitar 2:
E||------------------------------------------------------|
B||------------------------------------------------------|
G||------------------------------------------------------|
D||------------------------------------------------------| x3
A||------------------------------9-9-x--11-12-12--14-14--|
E||--9-9-x--11-12-1212-12121212--7-7-x--9--10-10--12-12--|
B||--7-7-x--9--10-1010-10101010--------------------------|


E||---------------------------------------------------------------|
B||---------------------------------------------------------------|
G||---------------------------------------------------------------|
D||--16--16161616-14---12--12121212-11--9--99999---7-7---6-6------|
A||--x---x-x-x-x--x----x---x-x-x-x--x---x--xxxxx---x-x---x-x------|
E||--14--14141414-12---10--10101010-9---7--77777---5-5---4-4--9~--|
B||-----------------------------------------------------------7~--|



Interlude
Guitar 1/2:
E||--5~--------|
B||-----7~-----|
G||--------6~--|
D||------------| x4
A||------------|
E||------------|
B||------------|


E||-------------------------------------------------------------------|
B||-------------------------------------------------------------------|
G||-------------------------------------------------------------------|
D||-------------------------------------------------------------------|
A||--------------------------------------------------7-7-7-7-7-7-7-7--|
E||--9-9-9-9-9-9-9-9-9-9-9-9-9-9-9-9-5-5-5-5-5-5-5-5-5-5-5-5-5-5-5-5--|
B||--7-7-7-7-7-7-7-7-7-7-7-7-7-7-7-7-3-3-3-3-3-3-3-3------------------|
     . . . . . . . . . . . . . . . . . . . . . . . . . . . . . 



Verse
Guitar 1/2:
E||---------------------------------------------------------------------------|
B||---------------------------------------------------------------------------|
G||---------------------------------------------------------------------------|
D||---------------------------------------------------------------------------|
A||--------------7-9--7-7--7-10-9-7-10-10--9-9--7-7---10--9-7-----------------|
E||---9~---9-7-9-5-7--5-5--5-8--7-5-8--8---7-7--5-5---8---7-5-9-9-------------|
B||---7~---7-5-7----------------------------------------------7-7-7-7-7-7-7---|
                                                                  . . . . .

E||------------------------------------------------|
B||------------------------------------------------|
G||------------------------------------------------|
D||------------------------------------------------| x2
A||--------------7-9---------7-----10--9--7--9-7---|
E||---9~---9-7-9-5-7---7-8-9-5--9--8---7--5--7-5---|
B||---7~---7-5-7-------5-6-7----7------------------|



Chorus / Outro
Guitar 1/2:
E||----------------------------------------------------------------------------|
B||----------------------------------------------------------------------------|
G||----------------------------------------------------------------------------|
D||----------------------------------------------------------------------------|
A||--------------------7/9----10---9-------------------------------7~----------|
E||---9~--9-9-7-7-7-7--5/7----8----7-------------------------7-7-7-5~-----10---|
B||---7~--7-7-5-5-5-5------x-----x---x--10~--10h12p10\7--7~--5-5-5-----x--8----|
              . . . .                                        . . .

E||-----------------------------------------------------------|
B||-----------------------------------------------------------|
G||-----------------------------------------------------------|
D||-----------------------------------------------------------|
A||--------------------7/9----10---9--------------------------|
E||---9~--9-9-7-7-7-7--5/7----8----7--------------------------|
B||---7~--7-7-5-5-5-5------x-----x---x--10~--10h12p10\7--7~---|
              . . . .


Guitar 1:
E||-------------------|
B||-------------------|
G||-------------------|
D||-------------------|
A||-------------------|
E||--7-8--------------|
B||------10-8-10-8-7--|
     . . .  . .  . .

Guitar 2:
E||-------------------|
B||-------------------|
G||-------------------|
D||-------------------| (Repeat all x2)
A||--9-10-9-7-9-------|
E||-------------10----|
B||-------------------|
     . .  . . . .


Guitar 1/2:
E||-----------|
B||-----------|
G||-----------|
D||-----------|
A||-----------|
E||---9~--9---|
B||---7~--7---|




Tablature Legend
----------------
 h   - hammer-on
 p   - pull-off
 b   - bend
 r   - release bend
 *   - pinch harmonic
 '   - natural harmonic
 x   - mute note
 .   - palm mute
 /   - slide down
 \   - slide up
Tap to rate this tab
# A B C D E F G H I J K L M N O P Q R S T U V W X Y Z