Song name
# A B C D E F G H I J K L M N O P Q R S T U V W X Y Z

Unearth - Shattered By The Sun tab

Band- Unearth
Song- Shattered By The Sun

0:00 - 0:27
Part 1
-||--------------------------------||
-||--------------------------------||
-||-8-8--7-------------------------||
-||--------------------------------||
-||-6-6--5-------------------------||
-||--------000000-0-000000-0-000000||
           ...... . ...... . ......

0:27 - 0:37
Part 2
-||------------------||
-||------------------||
-||-7----7----7---8--||
-||--0----0----0---0-||
-||---5----5----5---5||
-||------------------||

0:38 - 0:51 repeat part 1

0:51 - 1:03 repeat part 2

1:04 - 1:26
Part 3
-||----------------------------||-----------------------------||
-||----------------------------||-----------------------------||
-||----------------------------||-8-7-5--7-5-3--5-3-2---------||
-||-8-7-5-7-5-3--5-3-2---------||-----------------------------||
-||-6-5-3-5-3-1--3-1-0---------||-6-5-3--5-3-1--3-1-0---------||
-||--------------------00000000||---------------------00000000||
                       ........                      ........

1:27 - 1:57
Part 4 trem pick a few times then hit single notes
-||------------------||
-||----13----10------||
-||-------11----11-10||
-||-15---------------||
-||------------------||
-||------------------||


1:57 - 2:18
Part 5
-||---------------------------------||
-||-----8B------8B------8B---9-9-9-9||
-||---------------------------------||
-||-----5B------5B------5B---6-6-6-6||
-||---------------------------------||
-||0000---0000---0000---0-----------||
  ....   ....   ....   .
 B= bend string

2:18 -2:38
Part 6
-||------------------------||--------------------------------------------------
-||------------------------||--------------------------------------------------
-||------------------------||--------------------------------------------------
-||---0----0----0---6-5-3-5||--------------------------------------------------
-||---0----0----0---6-5-3-5||--------------------------------------------------
-||00-0-00-0-00-0-0-6-5-3-5||--------------------------------------------------
   ..   ..   ..   .
Tap to rate this tab
# A B C D E F G H I J K L M N O P Q R S T U V W X Y Z