Guitaretab - guitar tabs
Song name
# A B C D E F G H I J K L M N O P Q R S T U V W X Y Z

Unearth - This Lying World tab

That's right!!! Finally, Unearth in a Standard 7 string tablature. I will be adding the 
Susi(Guitar 2)trem part soon. Listen and play along with the song for timing and 
ect. Caution with the guitar flips.

(Guitar 1)Intro
E|-------------------------------------------------------------------------|
B|-------------------------------------------------------------------------|
G|-------------------------------------------------------------------------|
D|-3-3-3-3-----------------------------------------------------------------|
A|7-7-7-7------------------------------------------------------------------|
E|-------------------------------------------------------------------------|
B|-------------------------------------------------------------------------|

(Guitar 2)Intro
E|-------------------------------------------------------------------------|
B|-------------------------------------------------------------------------|
G|-------------------------------------------------------------------------|
D|-------------------------------------------------------------------------|
A|-------------------------------------------------------------------------|
E|-------------------------------------------------------------------------|
B|00000000000-000-0000000000-000-0000000000-000-0000000000-000-------------|

(Guitar 1)Repeat
E|-------------------------------------------------------------------------|
B|-------------------------------------------------------------------------|
G|-------------------------------------------------------------------------|
D|-------3-3-------3-3-3-3-------3-3---------------------------------------|
A|------7-7-------7-7-7-7-------7-7----------------------------------------|
E|-------------------------------------------------------------------------|
B|0-0000----0-0000--------0-0000----0-0000---------------------------------|

(Guitar 2)Repeat
E|-------------------------------------------------------------------------|
B|-------------------------------------------------------------------------|
G|-------------------------------------------------------------------------|
D|-------------------------------------------------------------------------|
A|--------8--8--------8--8--8--8--------8--8-------------------------------|
E|------12-12-------12-12-12-12-------12-12--------------------------------|
B|0-0000------0-0000------------0-0000------0-0000-------------------------|

(Guitar 1)
E|-------------------------------------------------------------------------|
B|-------------------------------------------------------------------------|
G|-------------------------------------------------------------------------|
D|-------------------------------------------------------------------------|
A|---------------6---------------------------------------------------------|
E|-5-7-8-7-5-7-8--7-8-7--5-7-8-7---10----12--8-7---------------------------|
B|0---0---0---0-0-------0---0---0-8--0-10--0-------------------------------|

(Guitar 2)
E|-------------------------------------------------------------------------|
B|-------------------------------------------------------------------------|
G|-------------------------------------------------------------------------|
D|-------------------------------------------------------------------------|
A|(2)-------------------2---------------------(2)--------------------------|
E|(2)-------------------2---------------------(2)--------------------------|
B|(0)-------------------0---------------------(0)--------------------------|

(Both Guitars)
E|-------------------------------------------------------------------------|
B|-------------------------------------------------------------------------|
G|-------------------------------------------------------------------------|
D|-------------------------------------------------------------------------|
A|---------------6---------------------------------------------------------|
E|-5-7-8-7-5-7-8--7-8-7--5-7-8-7---10----12--8-7---------------------------|
B|0---0---0---0-0-------0---0---0-8--0-10--0-------------------------------|

(Guitar 1)Fill
E|-------------------------------------------------------------------------|
B|-------------------------------------------------------------------------|
G|-------------------------------------------------------------------------|
D|-------------------------------------------------------------------------|
A|-------------------------------------------------------------------------|
E|-10-9--------------------------------------------------------------------|
B|0----0-10-12-------------------------------------------------------------|

(Guitar 1)
E|-------------------------------------------------------------------------|
B|-------------------------------------------------------------------------|
G|-------------------------------------------------------------------------|
D|-------------------------------------------------------------------------|
A|-------------------------------------------------------------------------|
E|-777-7-9-10-999-9-10-12-14-12-10-12-10-9-10-9-7-9-7-5--------------------|
B|0------------------------------------------------------------------------|

(Guitar 1)Continued
E|-------------------------------------------------------------------------|
B|-------------------------------------------------------------------------|
G|-------------------------------------------------------------------------|
D|-------------------------------------------------------------------------|
A|----------------------------99-99----------------------------------------|
E|777-7-9-10-999-9-10-9-555---77-77----------------------------------------|
B|-------------------------------------------------------------------------|

(Guitar 2)
E|-------------------------------------------------------------------------|
B|-------------------------------------------------------------------------|
G|-------------------------------------------------------------------------|
D|9-----------11----16-------14---------------9-----------11---7---14------|
A|-------------------------------------------------------------------------|
E|7-----------9-----14-------12---------------7-----------9----5---12------|
B|-------------------------------------------------------------------------|

(Both Guitars)
E|-------------------------------------------------------------------------|
B|-------------------------------------------------------------------------|
G|-------------------------------------------------------------------------|
D|-------------------------------------------------------------------------|
A|---------------6---------------------------------------------------------|
E|-5-7-8-7-5-7-8--7-8-7--5-7-8-7---10----12--8-7---------------------------|
B|0---0---0---0-0-------0---0---0-8--0-10--0-------------------------------|

(Both Guitars)
E|-------------------------------------------------------------------------|
B|-------------------------------------------------------------------------|
G|-------------------------------------------------------------------------|
D|-------------------------------------------------------------------------|
A|9-------9----------------------------------------------------------------|
E|7-------7----------------------------------------------------------------|
B|-0000000-00000-12-Slide-3------------------------------------------------|

(Guitar 1)Repeat
E|-------------------------------------------------------------------------|
B|-------------------------------------------------------------------------|
G|-------------------------------------------------------------------------|
D|-------------------------------------------------------------------------|
A|-9-7-9-----9-7-9-7-5-7-9-7-9-----9-7-9-10-9-10---------------------------|
E|-------------------------------------------------------------------------|
B|0-----00000-----0-----0-----00000-----0----------------------------------|
[ Tab from: http://www.guitaretab.com/u/unearth/65259.html ]
(Guitar 2)Repeat
E|-------------------------------------------------------------------------|
B|-------------------------------------------------------------------------|
G|-------------------------------------------------------------------------|
D|-4-2-4-----4-2-2-2-0-2-4-2-4-----4-2-4-5-4-5-----------------------------|
A|-------------------------------------------------------------------------|
E|-------------------------------------------------------------------------|
B|0-----00000-----0-----0-----00000-----0----------------------------------|

(Guitar 1)Repeat
E|-------------------------------------------------------------------------|
B|-------------------------------------------------------------------------|
G|-------------------------------------------------------------------------|
D|-------------------------------------------------------------------------|
A|-------------------------------------------------------------------------|
E|777777-999999-101010101010-999999-12-10-9-10-----------------------------|
B|-------------------------------------------------------------------------|

(Guitar 2)Coming Soon
E|-------------------------------------------------------------------------|
B|-------------------------------------------------------------------------|
G|-------------------------------------------------------------------------|
D|-------------------------------------------------------------------------|
A|-------------------------------------------------------------------------|
E|-------------------------------------------------------------------------|
B|-------------------------------------------------------------------------|

                                 GO!!!
(Guitar 1)Repeat
E|-------------------------------------------------------------------------|
B|-------------------------------------------------------------------------|
G|-------------------------------------------------------------------------|
D|-------------------------------------------------------------------------|
A|-------------------------------------------------------------------------|
E|------7----------7-8-7-5-7------7----5-7-5------5-7----------------------|
B|000000-0000-00000---------000000-0000-----7-6-5-3-5----------------------|

(Guitar 2)Repeat
E|-------------------------------------------------------------------------|
B|-------------------------------------------------------------------------|
G|-------------------------------------------------------------------------|
D|-------------------------------------------------------------------------|
A|-------------------------------------7-9-7------7-9----------------------|
E|------7----------7-8-7-5-7------7---------9-8-7-5-7----------------------|
B|000000-0000-00000---------000000-0000------------------------------------|

(Both Guitars)
E|-------------------------------------------------------------------------|
B|-------------------------------------------------------------------------|
G|-------------------------------------------------------------------------|
D|-------------------------------------------------------------------------|
A|(2)----------------------------------------------------------------------|
E|(2)----------------------------------------------------------------------|
B|(0)-------------------------12-Slide-3-----------------------------------|

(Guitar 1)          On this stage, It's our lives!!!
E|-------------------------------------------------------------------------|
B|-------------------------------------------------------------------------|
G|-------------------------------------------------------------------------|
D|-------------------------------------------------------------------------|
A|----9--9-------9--9-----9-10-9-----9-10-9------12--12------12--12--------|
E|7-10-10-10-7-10-10-10-10------10-10------10--12--12--12--12--12--12------|
B|---------------------8----------8----------10----------10----------------|

(Guitar 1)Continued
E|-------------------------------------------------------------------------|
B|-------------------------------------------------------------------------|
G|-------------------------------------------------------------------------|
D|-------------------------------------------------------------------------|
A|----9--9-7--7-7-9--------------------------------------------------------|
E|1010-10---99-9-----------------------------------------------------------|
B|-------------------------------------------------------------------------|

(Guitar 1)Fill
E|-------------------------------------------------------------------------|
B|10-8-7-------------------------------------------------------------------|
G|------9-7-6-9-7-6--------------------------------------------------------|
D|-----------------9-7-6-9-7-6---------------------------------------------|
A|----------------------------9-7-6-9-7-6------(2)-------------------------|
E|---------------------------------------9-7-6-(2)-------------------------|
B|---------------------------------------------(0)-------------------------|

(Guitar 2)
E|-------------------------------------------------------------------------|
B|-------------------------------------------------------------------------|
G|-------------------------------------------------------------------------|
D|9---12---16---14---9--12---14---12---11----------------------------------|
A|---------------------------------------------(9)-------------------------|
E|7---10---14---12---7--10---12---10---9-------(7)-------------------------|
B|---------------------------------------------(0)-------------------------|

(Guitar 1)
E|-------------------------------------------------------------------------|
B|-------------------------------------------------------------------------|
G|-------------------------------------------------------------------------|
D|-------------------------------------------------------------------------|
A|----------------32---------------32--------------32---------7------------|
E|----------------32------------5*-32--------------32---------7------------|
B|000000060005000310000006000500---1000000600050003100000060005------------|

(Guitar 2)
E|-------------------------------------------------------------------------|
B|-------------------------------------------------------------------------|
G|-------------------------------------------------------------------------|
D|-------------------------------------------------------------------------|
A|(2)---------------------------9*----------------------------7------------|
E|(2)---------------------------------------------------------7------------|
B|(0)------------------------------------------------0000060005------------|

(Guitar 1)                      BREAKDOWN!!!
E|-------------------------------------------------------------------------|
B|-------------------------------------------------------------------------|
G|-------------------------------------------------------------------------|
D|-------------------------------------------------------------------------|
A|32-------------532---------------32-------------532----------------------|
E|32-------------532------------5*-32-------------532------------5*--------|
B|100000060005000310000006000500---100000060005000310000006000500----------|

E|-------------------------------------------------------------------------|
B|-------------------------------------------------------------------------|
G|-------------------------------------------------------------------------|
D|-------------------------------------------------------------------------|
A|32-------------532---------------32-------------532-------------532------|
E|32-------------532------------5*-32-------------532-------------532------|
B|100000060005000310000006000500---1000000600050003100000060005000310------|

(Guitar 2)                      BREAKDOWN!!!
E|-------------------------------------------------------------------------|
B|-------------------------------------------------------------------------|
G|-------------------------------------------------------------------------|
D|-------------------------------------------------------------------------|
A|32-------------532---------------32-------------532----------------------|
E|32-------------532------------9*-32-------------532------------9*--------|
B|100000060005000310000006000500---100000060005000310000006000500----------|

E|-------------------------------------------------------------------------|
B|-------------------------------------------------------------------------|
G|-------------------------------------------------------------------------|
D|-------------------------------------------------------------------------|
A|32-------------532---------------32-------------532-------------532------|
E|32-------------532------------9*-32-------------532-------------532------|
B|100000060005000310000006000500---1000000600050003100000060005000310------|
Related for This Lying World tab
Advertisement will be closed in 10 seconds