Song name
# A B C D E F G H I J K L M N O P Q R S T U V W X Y Z

Unearth - Sanctity Of Brothers tab

Yeah so this was one of those songs that when i first heard it i was.. dam i gotta learn 
song. this is my version of it except for part of the chorus which i stole from the 
pro tab of this song. (which is totally wrong in some places).

tabbed by : Jared Hyslop

btw this is converted from seven string to six string so lick my balls if you got 
to say about it.

Heres my version of the intro which i find the smoothest and sounds best:
----------------------------------------------------------------------------|
----------------------------------------------------------------------------|
----------------------------------------------------------------------------|
---7------8p7---7------12p11----11------8p7---7-------5-----5-7-------------|
-----0000-----8---0000-------12----0000-----8---5-7-8---7-8-----------------|
----------------------------------------------------------------------------|
     ****         ****             ****


---------------------------------------------------------------------------|
---------------------------------------------------------------------------|
---------------------------------------------------------------------------|
---------8p7---7-------12p11----11-12-14-12-11------------7---7---7---7----|
-----0000-----8---0000------12-----------------12-10-12-8---8---7---7------|
---------------------------------------------------------------------------|
     ****         ****

Verse:
----------------------------------------------------------------------------|
----------------------------------------------------------------------------|
----------------------------------------------------------------------------|
----------------------------------------------------------------------------|
--------12-10-12-----------------------------------12-10----10--------------|
----000----------000-12-10-12-000000-13-12-13-000-------12----12-10-12------|
    ***          ***          ******          ***


----------------------------------------------------------------------------|
----------------------------------------------------------------------------|
----------------------------------------------------------------------------|
----------------------------------------------------------------------------|
--------12-10-12-------------------------------------10----------12-10------|
----000----------000-12-10-12-000000-13-12-13-10-12----13-12-10-------12-10-|
    ***          ***          ******

CHORUS:
----------------------------------------------------------------------------|
----------------------------pickscrape--------------------------------------|
---12-11-7~-7/9--12-14-7~---//////////--------------------------------------|
---12-11-7~-7/9--12-14-7~---//////////--------------------------------------|
---10-9--5~-5/7--10-12-5~---//////////--------------------------------------|
----------------------------//////////--------------------------------------|

next part i stole from guitar pro tab:

----------------------------------------------------------------------------|
----------------------------------------------------------------------------|
-----7--7-5--------7--7-5--------------10--10-9--------10---10-9------------|
-7-5--5----7-5-7-5--5-----7-5------9-7---7-----9-7-9-7----7------9-7--------|
----------------------------------------------------------------------------|
----------------------------------------------------------------------------|

----------------------------------------------------------------------------|
----------------------------------------------------------------------------|
-------12---12-10------------12-----12-10-----------------------------------|
-12-10---10------12-10-12-10----10--------12-10-----------------------------|
----------------------------------------------------------------------------|
----------------------------------------------------------------------------|

----------------------------------------------------------------------------|
----------------------------------------------------------------------------|
-12-10----10-12-14-12-10-12-10----------------------------------------------|
-------12-----------------------14-12-10-14-12/-----------------------------|
----------------------------------------------------------------------------|
----------------------------------------------------------------------------|

then a good part:

----------------------------------------------------------------------------|
--9-------------------------------------------------------------------------|
--9-2-------9-7-5-7-4--------10-9-7-9-2--------10-9-7-------9--------9------|
--7-2-------------------------------------------------10-12-----9-10-7------|
--7-0--00000-----------00000-------------00000------------------7-8---------|
----------------------------------------------------------------------------|
       *****           *****             *****

Now time for what i think is the best part: the breakdown(please palm mute it right cuz 
just ruins it if u dont)

----------------------------------------------------------------------------|
----------------------------------------------------------------------------|
----------------------------------------------------------------------------|
--9\--------------12-10--7/7---------------9---------12-10---7---5~-550-----|
--7\--------------10-8---5/9---------------7---------10-8----5---3~-330-----|
-----000000-------------------0000000---00---0000000-------00--00-----------|
     ******                   *******   **   *******       **  **

play these each multiple times during it at the end of breakdown
----------------------------------------------------------------------------|
----------------------------------------------------------------------------|
--9---10--14-13------9-10-14------------------------------------------------|
--9---10--14-13------9-10-14------------------------------------------------|
--7---8---12-11------7-8--12------------------------------------------------|
----------------------------------------------------------------------------|

then this during intro

----------------------------------------------------------------------------|
----------------------------------------------------------------------------|
-------------------------------9~-------------------------------------------|
--9-----------9-------9--------9~-------------------------------------------|
--7-----------7-------7--------7~-------------------------------------------|
----------------------------------------------------------------------------|

then this at end:
-----------------------------------------------------------------------------|
-----------------------------------------------------------------------------|
----99-99-9-9-9-9-9-9-9------------------------------------------------------|
----99-9-9-9-9-9-9-9-9-------12p11--11-12-14-12-11-----------7-7-7-7---------|
----77-7------------------00------12---------------12-10-12-8-8-7-7----------|
-----------------------------------------------------------------------------|
                          **

good luck
Tap to rate this tab
# A B C D E F G H I J K L M N O P Q R S T U V W X Y Z