Song name
# A B C D E F G H I J K L M N O P Q R S T U V W X Y Z

Unearth - Glorious Nightmare tab

Glorious Nightmare Solo/Breakdown

1:39
e-----------------------------------------------------------|
b-----------------------------------------------------------|
G-----------------------------------------------------------|
D-----------------------------------------------------------|
A-----------------------------------------------------------|
E----------------------10-9---5-7----------7p5--------------|
B-7-9-10-9-10-12----00------0-----00-5h8p5-----7------------|
 <              >

1:44
e-----------------------------------------------------------|
b-----------------------------------------------------------|
G-----------------------------------------------------------|
D-----------------------------------------------------------|
A------------7\5-5/7----------------------------------------|
E----10-9----5\3-3/5----------------------------------------|
B-00------00---------00-------------------------------------|
          PM         PM
Repeat these two riffs excluding the lead into the break down marked <> for the 2nd and 
time. The comes this

1:59
e-----------------------------------------------------------|
b-----------------------------------------------------------|
G-----------------------------------------------------------|
D-----------------------------------------------------------|
A-------------------5-5/7-------------7\5-5/7---------------|
E----10-9---5-7-----3-5/7-----10-9----5\3-3/5---------------|
B-00------0-----000---3/5---00-----00----------00-----------|
                                   PM          PM
Tap to rate this tab
# A B C D E F G H I J K L M N O P Q R S T U V W X Y Z