Song name
# A B C D E F G H I J K L M N O P Q R S T U V W X Y Z

Unearth - March Of The Mutes tab

-------------------------------------------------------------------------------
			     SONG NAME - Band Name
-------------------------------------------------------------------------------
Tabbed by:1sicmaggot
Email:hannible666@hotmail.com

Tuning:Drop B

Heres the part where the guitars are fading in. Repeated 2 times.

Guitar 1
|--------------------------------------------------------------------------|
|----------11h12p11-12-11----11-12----------12-11--------------------------|
|-13-10-13----------------13-------13-10-13-------13-11----11-10-11-10-----|
|-------------------------------------------------------12-----------------|
|--------------------------------------------------------------------------|
|--------------------------------------------------------------------------|

^^^( I havent figured out Guitar 2 for that part yet)^^^

 Heres the next segment of the intro. Repeated 3 times.

Guitar 1
|--------------------------------------------------------------------------|
|-------------11-12-----------12-11----11-12-11h12p11----------------------|
|-11----11-13--------13-10-13-------13----------------13-11-13-11-10-11----|
|----13--------------------------------------------------------------------|
|--------------------------------------------------------------------------|
|--------------------------------------------------------------------------|


Guitar 2
|--------------------------------------------------------------------------|
|--------------------------------------------------------------------------|
|--------------------------------------------------------------------------|
|-13-13-16-15-13-15----15-18-16-15-------13-16-15-13-12----12-15-13-12-----|
|-------------------16----------------13----------------13-----------------|
|----------------------------------16--------------------------------------|
                                   X  X



And thats it. Enjoy.
Tap to rate this tab
 
# A B C D E F G H I J K L M N O P Q R S T U V W X Y Z