Song name
# A B C D E F G H I J K L M N O P Q R S T U V W X Y Z

Ungu - Cinta Gila tab

|----------------Ungu----------------|
|-------------Cinta Gila-------------|
|----------------Solo----------------|

Tabbed By : RockZ Fever 
Location  : Jombang, East Java, Indonesia

Second Solo Part.

e|-------------------|---------9--11--11---|
B|-----5-------------|----9-10-----------9-|
G|--6----6-----------|--6------------------|
D|-6-6-----6--6-4-6--|---------------------|
A|-------------------|---------------------|
E|-------------------|---------------------|

e|----------------|---------------|--------|
B|-7--7h9--5h7--4-|-------5-------|--------|
G|----------------|-6-4-6---6-4-6-|--6--4--|
D|----------------|---------------|--------|
A|----------------|---------------|--------|
E|----------------|---------------|--------|

e|-----9----------------|
B|-5s9---9---7h9p7------|
G|-------------------6--|
D|----------------------|
A|----------------------|
E|----------------------|

We Are Cliquers !!!

This is my first tab. 
If you find any mistakes, please report at :
bima_mwetal@yahoo.co.id
Tap to rate this tab
 
# A B C D E F G H I J K L M N O P Q R S T U V W X Y Z