Song name
# A B C D E F G H I J K L M N O P Q R S T U V W X Y Z

Ungu - Tercipta Untukku tab

UNGU - Tercipta Untukku (solo)



Key:

^  - bend
^^ - full bend
h  - hammer on
p  - pull off
r  - release bend
/  - slide down
\  - slide up
~  - vibrato
() - finger tap




   B           E
Sepanjang hidupku...



                      Am                                           E
e|-------------------------------12------------12-12--14-14--14/16--------|
B|------------9-10-12-13-13---------13-13--------------------------12~----|
G|----------9-------------------------------------------------------------|
D|--------9---------------------------------------------------------------|
A|--11-12-----------------------------------------------------------------|
E|------------------------------------------------------------------------|



                                    Am
e|---------------------------------------------12------------12-12---|
B|--9h10-9~-----------------9-10-12-13-13---------13-13--------------|
G|------------------------9------------------------------------------|
D|----------------------9--------------------------------------------|
A|----------------11-12----------------------------------------------|
E|-------------------------------------------------------------------|



          B
e|--11h12-11------------12p11--------12p11--------12p11---------------|
B|-----------12-12------------14-12--------14-12--------14-12---------|
G|--------------------------------------------------------------------|
D|--------------------------------------------------------------------|
A|--------------------------------------------------------------------|
E|--------------------------------------------------------------------|



    B
e|--X---------------|
B|--X---------------|
G|--4---------------|
D|--4---------------|
A|--2---------------|
E|--X---------------|


             E
Aku ingin engkau...



Guitar Tabs by rizalwahap
Tap to rate this tab
 
# A B C D E F G H I J K L M N O P Q R S T U V W X Y Z