Song name
# A B C D E F G H I J K L M N O P Q R S T U V W X Y Z

Ungu - Percaya Padaku tab

UNGU - Percaya Padaku (intro & solo)


Key:

^  - bend
^^ - full bend
h  - hammer on
p  - pull off
r  - release bend
/  - slide down
\  - slide up
~  - vibrato
() - finger tap





INTRO:


     A                             E
e|---------------------------------------------------------|
B|---------------------------------------------------------|
G|-----------9----9----9-----------------------------------|
D|--6/7--7-7-7--X-7--X-7-------------------9----9----9-----|
A|--------------------------------5/7--7-7-7--X-7--X-7-----|
E|---------------------------------------------------------|


     F#                               D
e|--------------------------------------------------------------|
B|--------------------------------------------------------------|
G|--------------------------------------------------------------|
D|-----------11----11----11-------------------7----7----7-------|
A|--7/9--9-9-9---X-9---X-9-----------4/5--5-5-5--X-5--X-5-------|
E|--------------------------------------------------------------|


Play above twice.




SOLO:


              A                         A
e|----------------------------------------------------|
B|----------------------------------------------------|
G|--14-14-14-14\9--9-9--------14-14-14-14\9--9-9------|
D|----------------------------------------------------|
A|--12-12-12-12\7--7-7--------12-12-12-12\7--7-7------|
E|----------------------------------------------------|


              E                            E
e|----------------------------------------------------------|
B|----------------------------------------------------------|
G|--14-14-14-14\13--13-13--------14-14-14-14\13--13-13------|
D|----------------------------------------------------------|
A|--12-12-12-12\11--11-11--------12-12-12-12\11--11-11------|
E|----------------------------------------------------------|


             F#                           F#
e|----------------------------------------------------------|
B|----------------------------------------------------------|
G|--16-16-16-16\14--14-14--------16-16-16-16\14--14-14------|
D|----------------------------------------------------------|
A|--14-14-14-14\12--12-12--------14-14-14-14\12--12-12------|
E|----------------------------------------------------------|


              D                            D
e|---------------------------------------------------------|
B|---------------------------------------------------------|
G|--19-19-19-19\16--16-16--------19-19-19-19\16--16-16-----|
D|---------------------------------------------------------|
A|--17-17-17-17\14--14-14--------17-17-17-17\14--14-14-----|
E|---------------------------------------------------------|


Play above twice then end with below...


              A
e|----------------------|
B|----------------------|
G|--14-14-14-14---------|
D|----------------------|
A|--12-12-12-12---------|
E|----------------------|




Guitar Tabs by rizalwahap
Tap to rate this tab
# A B C D E F G H I J K L M N O P Q R S T U V W X Y Z