Song name
# A B C D E F G H I J K L M N O P Q R S T U V W X Y Z

Ungu - Seperti Yang Dulu tab

 Band      :  Ungu
 Song      :  Seperti yang Dulu
 Album     :  Melayang
 Tabbed by :  Dimas_spinX@yahoo.co.id


|------------------------------------------------------------------|
|------------------------------------------------------------------|
|------------------------------------------------------------------|
|------------------------------------------------------------------|
|----~15-14-15------15-14-15-14---14-15-14-12-10-12---14-15--------|
|-------------17-------------------------------------------17------|

|------------------------------------------------------------------|
|------------------------------------------------------------------|
|------------------------------------------------------------------|
|-------------14-16h14-14-14-12-11-12--9---------------------------|
|-15-----17-15-----------------------------------------------------|
|---15-14----------------------------------------------------------|
Tap to rate this tab
# A B C D E F G H I J K L M N O P Q R S T U V W X Y Z