Song name
# A B C D E F G H I J K L M N O P Q R S T U V W X Y Z

Unheilig - Geboren Um Zu Leben tab

Hier mal klanglich die Klaviernoten umgesetzt
und nicht nur die umgesetzten Akkorde.
So sollte das Intro auch auf der Gitarre richtig
klingen.

Bei Fragen: obelix@saeuferleber.de



e-3----3----3----3-----3----3----3----3---|
b-5----5----5----5-----3----3----3----3---|
g---4----4----4----4-----4----4----4----4-|
d-----------------------------------------|
a-----------------------------------------|
e-----------------------------------------|

e--2----2----2----2----2----2----2----2---|
b--3----3----3----3----3----3----3----3---|
g----4----4----4----4----2----2----2----2-|
d-----------------------------------------|
a-----------------------------------------|
e-----------------------------------------|
Tap to rate this tab
 
# A B C D E F G H I J K L M N O P Q R S T U V W X Y Z