Guitaretab - guitar tabs
Song name
# A B C D E F G H I J K L M N O P Q R S T U V W X Y Z
Home / U / Unida / Nervous tab

Unida - Nervous tab

Nervous

by Unida
from the album 'Coping with the Urban Coyote'
tuning: CGCFAD

Tabbed by Jimmy Borloo (jimmyborloo@hotmail.com), for comments email me!

^: harmonic    
/ or \: slide
X: palm mute
b: bend
r: release
p: pull off


Intro  mostly harmonics
D:|----------------------------------------------------|
A:|----------------------------------------------------|
F:|----------------------------------------------------|
C:|-0-0----5^-5^-5^-5^-5^-5^-5^-5^--5--5--5--5--5-\-7--|
G:|-0-0----5^-5^-5^-5^-5^-5^-5^-5^--3--3--3--3--3-\-5--|
C:|-0-0----5^-5^-5^-5^-5^-5^-5^-5^---------------------| 


Verse-riff
D:|-------------------------------------------------------------------|
A:|-------------------------------------------------------------------|
F:|-------------------------------------------------------------------|
C:|--------------------------------------5----5----5----5----5--\--7--|
G:|-0---0-------5-5--3^5--5--5-\-8-------3----3----3----3----3--\--5--|
C:|-0---0-------------------------------------------------------------|
                                                                    
D:|--------------------------------------------------------------------|
A:|--------------------------------------------------------------------|
F:|--------------------------------------------------------------------|
C:|-----------------------------------------------------5-5-5-5-5-\-7--|
G:|-0-0-------------------------------------------------3-3-3-3-3-\-5--|
C:|-0-0--17^/16^/15^/14^/13^/12^/11^/10^/9^/8^/7^/6^/5^/---------------|


Chorus
D:|---------------------------------------------------|
A:|---------1313-1313131315---------------------------|
F:|---------------------------------------------------|
C:|--------------------------------5--5--5--5--5-\-7--|
G:|-0-0----------------------------3--3--3--3--3-\-5--|
C:|-0-0-----------------------------------------------|


Nice short guitarsolo (gives an idea of the colossal solo that is about to follow!) 
D:|-----------------------------------------------------------|
A:|-------10---------------------------10-------------13~~~~--|
F:|-12b13----12p10-12p10---------12b13----12p10-12p10---------|
C:|----------------------12~~~~-------------------------------|
G:|-----------------------------------------------------------|
C:|-----------------------------------------------------------| 


Long guitarsolo (one of the best ever written!)
D:|---------------------------------------------------------------------------|
A:|-------10------------------------------------------------------------------|
F:|-12b13----12p10-12p10----------------10/12-10-----------------10-12b13r12--|
C:|----------------------12----10-12-12----------12--12-10-12-12--------------|
G:|-------------------------12------------------------------------------------|
C:|---------------------------------------------------------------------------|

D:|-------------------------------13----------13-15b16r15-13-15b16-15b16r15-13--|
A:|-------10-------------13/15-15----15-15-15-----------------------------------|
F:|-12b13----12p10-12p10--------------------------------------------------------|
C:|-----------------------------------------------------------------------------|
G:|-----------------------------------------------------------------------------|
C:|-----------------------------------------------------------------------------|
[ Tab from: http://www.guitaretab.com/u/unida/120981.html ]
D:|-15b16r15-13-15p13---------------------------------------------------------|
A:|-------------------15-(\)-15p13-13-15p13-13-15p13-13-15p13-13-13b15r13\10--|
F:|---------------------------------------------------------------------------|
C:|---------------------------------------------------------------------------|
G:|---------------------------------------------------------------------------|
C:|---------------------------------------------------------------------------|

D:|-----------------------------------------------------------------------------|
A:|-13p10----10-----------------------------------------------------------------|
F:|-------12----12p10-12p10----10-----------------------------------------------|
C:|-------------------------12----12p10-12p10----10-----------------------------|
G:|-------------------------------------------12----12p10-12p10----10-----------|
C:|-------------------------------------------------------------15----15p12-15--|

D:|-----------------------------------------------------------------------------|
A:|-------------------------------------------------------------10-13-13b15r13--|
F:|-------------------------------10-12-12b14r12-10-12~~--10-12-----------------|
C:|-------10----10-12-10-12~~--12-----------------------------------------------|
G:|-10-12----12-----------------------------------------------------------------|
C:|-----------------------------------------------------------------------------|

D:|----------------13-15-15b17r15-13-1515b17\13-----------------|
A:|-10-13~~--13-15-------------------------------15-13\10--------|
F:|-------------------------------------------------------12-10--|
C:|--------------------------------------------------------------|
G:|--------------------------------------------------------------|
C:|--------------------------------------------------------------|

                                               3x and then...
D:|------------------------------------------------------------------------------|
A:|------------------------------------------------------------------------------|
F:|-12p10-12p10----------12p10-12p10-----------------------12p10-12p10-----------|
C:|-------------12p10-10-------------10-12p10-12p10--------------------12p10-10--|
G:|------------------------------------------------------------------------------|
C:|------------------------------------------------------------------------------|

D:|---------------------------------------------------------|
A:|-13p10----10---------------------------------------------|
F:|-------12----12p10-12p10----10---------------------------|
C:|-------------------------12----12p10-12p10-------12~~~~--|
G:|-------------------------------------------12p10---------|
C:|---------------------------------------------------------|
Was this fun or what?!?


Part that is palm-muted (after long guitarsolo)
D:|----------------------------------|
A:|----------------------------------|
F:|----------------------------------|
C:|-0-0----5^-5^-5^-X-X-X-X-X-X-X----|
G:|-0-0----5^-5^-5^-X-X-X-X-X-X-X----|
C:|-0-0----5^-5^-5^-X-X-X-X-X-X-X----| 


Outro
D:|---------------------------------------------|
A:|---------------------------------------------|
F:|---------------------------------------------|
C:|-0--0-0--0--7-7-7-7--0-0--0-0--0-7-7-7-------|
G:|-0--0-0--0--5-5-5-5--0-0--0-0--0-5-5-5-------|
C:|-0--0-0--0--0-0-0-0--0-0--0-0--0-0-0-0-------|
Related for Nervous tab