Song name
# A B C D E F G H I J K L M N O P Q R S T U V W X Y Z

Unida - If Only Two tab

if only two

by Unida (the one and only Kyuss heirs) 
from the album 'coping with the urban coyote'

transcribed by Christian Reindel (creindel@gmx.de)
any questions or corrections-e-mail me

tune down one whole step
 
Intro: bass plays mainriff
       guitar plays this two times 
D:|---------------------------------------------------|
A:|---------------------------------------------------|
F:|---------------------------------------------------|
C:|---------------------------------------------------|
G:|---------------------------------------------------|
D:|--3~-----6~------3~--------3~------6~-------8~-----|

 come in with heavy fuzzz
D:|------------------|
A:|------------------|
F:|------------------|
C:|------------------|
G:|1010101010101010--|
D:|-8-8-8-8-8-8-8-8--|
 
 mainriff - Your eyes both look just the same...
D:|----------------------------------------------------------|
A:|----------------------------------------------------------|
F:|----------------------------------------------------------|
C:|----------------------------------------------------------|
G:|-5-5-5-5-5-5-8-8-8-8-8-8-5-5-5-5-5-5-5-5-5-5-5-5-5-5-5-5--|
D:|-3-3-3-3-3-3-6-6-6-6-6-6-3-3-3-3-3-3-3-3-3-3-3-3-3-3-3-3--|
                                                end main riff   
D:|----------------------------------------------------------|
A:|----------------------------------------------------------|
F:|----------------------------------------------------------|
C:|----------------------------------------------------------|
G:|-5-5-5-5-5-5-8-8-8-8-8-8-10101010101010101010101010101010-|
D:|-3-3-3-3-3-3-6-6-6-6-6-6--8-8-8-8-8-8-8-8-8-8-8-8-8-8-8-8-|

Chorus riff - If only...lonely, you own me, yeah, yeah, yeah, yeah
            3 times                          1 time
D:|---------------------------|----------------------------------|
A:|---------------------------|----------------------------------|
F:|---------------------------|----------------------------------|
C:|---------------------------|----------------------------------|
G:|-5-5-5-5-5-5--8---8--8-8-8-|-10101010101010101010101010101010-|
D:|-3-3-3-3-3-3--6---6--6-6-6-|--8-8-8-8-8-8-8-8-8-8-8-8-8-8-8-8-|

back to mainriff
than again chorusriff - 3 times


interlude 

           3 times                         
D:|-------------------------------|--------------------------------|
A:|-------------------------------|--------------------------------|
F:|-------------------------------|--------------------------------|
C:|-------------------------------|--------------------------------|
G:|-101010101010--8--3--3-3/5-5---|-101010101010101010101010101010-|
D:|--8-8-8-8-8-8--6--1--1-1/3-3---|--8-8-8-8-8-8-8-8-8-8-8-8-8-8-8-|
        
D:|-------------------------------|--------------------------------|
A:|-------------------------------|--------------------------------|
F:|-------------------------------|--------------------------------|
C:|-------------------------------|------------------8--8-8/10-----|
G:|-101010101010--8--3--3-3/5-5---|-101010101010--8--6--6-6/-8-----|
D:|--8-8-8-8-8-8--6--1--1-1/3-3---|--8-8-8-8-8-8--6----------------|

                                                     end interlude
D:|-------------------------------|--------------------------------|
A:|-------------------------------|--------------------------------|
F:|-------------------------------|--------------------------------|
C:|-------------------------------|--------------------------------|
G:|-101010101010--8--3--3-3/5-5---|-101010101010101010101010101010-|
D:|--8-8-8-8-8-8--6--1--1-1/3-3---|--8-8-8-8-8-8-8-8-8-8-8-8-8-8-8-|

back to chorusriff - play 'til the end and fade out

end. 
Tap to rate this tab
# A B C D E F G H I J K L M N O P Q R S T U V W X Y Z