Song name
# A B C D E F G H I J K L M N O P Q R S T U V W X Y Z

Unida - Thorn tab

thorn

by Unida (the one and only Kyuss heirs) 
from the album 'coping with the urban coyote'

transcribed by Christian Reindel (creindel@gmx.de)
any questions or corrections-e-mail me

tune down one whole step

    main-riff 
D:|--------------------|
A:|--------------------|
F:|--------------------|
C:|--------------------|
G:|----------3~--------|
D:|---5--5-5-----------|

     Love              whoa,love you wanna survive
D:|------------------------------------------------------------------------|
A:|------------------------------------------------------------------------|
F:|------------------------------------------------------------------------|
C:|--7--7--7--7--7--7--7--7--5--5--5--5--5--5--5---------------------------|
G:|--5--5--5--5--5--5--5--5--3--3--3--3--3--3--3-----------3~---------3~---|
D:|-------------------------------------------------5--5-5-----5--5-5------|
 
That's it.
 
Tap to rate this tab
# A B C D E F G H I J K L M N O P Q R S T U V W X Y Z