Song name
# A B C D E F G H I J K L M N O P Q R S T U V W X Y Z

Unida - Dwarf It tab

Help us improve GuitareTab! Take a short survey!
dwarf it

by Unida (the one and only Kyuss heirs) 
from the album 'coping with the urban coyote'

transcribed by Christian Reindel (creindel@gmx.de)
any questions or corrections-e-mail me

tune down one whole step
    
   lead guitar
D:|-----------------------------------------------------------------|
A:|-----------------------------------------------------------------|
F:|-----------------------------------------------------------------|
C:|-11-11-11-14-14-14-141414---11-11-11-7-7-7-777-------------------|
G:|-----------------------------------------------------------------|
D:|-----------------------------------------------------------------|


   Verse riff
D:|----------------------------------------------------------|
A:|----------------------------------------------------------|
F:|----------------------------------------------------------|
C:|--6--6--6--9--9--9--9-8-9---6--6--6-----------------------|
G:|--4--4--4--7--7--7--7-6-7---4--4--4--7--7--7--7-6-5-------|
D:|-------------------------------------5--5--5--5-4-5-------|

   Chorusriff  
   so, so, so, so fuckin sad
D:|---------------------------|
A:|---------------------------|
F:|---------------------------|
C:|-6-6-6-6-6-6---------------|
G:|-4-4-4-4-4-4-7-7-7-767-----|
D:|-------------5-5-5-545-----| 

That's it.
Related for Dwarf It tab