Song name
# A B C D E F G H I J K L M N O P Q R S T U V W X Y Z

Unida - Stray tab

Guitar Tab
Artist: Unida
Song: Stray
Tabbed by Randall NolanóJim4guitar@hotmail.com
Tuning: Dropped D (D A D G B E)

Opening chords (power chords)
                         [Let ring]                   [Let ring]
E -----5-5-5-5-5-\\\\\\--------3-3-3-3-3-\\\\\------------------------------
B ---- 5-5-5-5-5-\\\\\\--------3-3-3-3-3-\\\\\------------------------------
G -----7-7-7-7-7--\\\\\\-------5-5-5-5-5-\\\\\\-----------------------------
D -----7-7-7-7-7--\\\\\\-------5-5-5-5-5-\\\\\\-----------------------------
A -----5-5-5-5-5--\\\\\\-------3-3-3-3-3-\\\\\\-----------------------------
D --------------------------------------------------------------5---3-------



E ----5-5-5-5-5-\\\\\\--------3-3-3-3-3-\\\\\-------------------------------
B ----5-5-5-5-5-\\\\\\--------3-3-3-3-3-\\\\\-------------------------------
G ----7-7-7-7-7--\\\\\\-------5-5-5-5-5-\\\\\\------------------------------
D ----7-7-7-7-7--\\\\\\-------5-5-5-5-5-\\\\\\---------------5---3----------
A ----5-5-5-5-5--\\\\\\-------3-3-3-3-3-\\\\\\---------------5---3----------
D -----------------------------------------------------------5---3----------



Main Riff

E -----------------------------------------------------------------------
B ----------------------------------------------------------------------- 
G -----------------------------------------------------------------------
D ---------3-------------------------------------------------------------
A -----------3------5--------3-------------------------------------------
D --000--------0---5-6-7-------------------------------------------------


Killer song Unida rock, very stoned out mainly because Jon Garcia is the front man but he
is backed up by some mean riffs. Listen to the song to know when to play each part, this
ounds right to me email me if you have any corrections cheers enjoy!
Tap to rate this tab
# A B C D E F G H I J K L M N O P Q R S T U V W X Y Z