Song name
# A B C D E F G H I J K L M N O P Q R S T U V W X Y Z

Unified Theory - Beneath The Underdog tab

Help us improve GuitareTab! Take a short survey!
Drop-D tuning

Verse:
-------------------------|
-------------------------|
-------------------------|
-------------------------|
-----5b7---5-------------|
-0-0-----3---------------|

Chorus:
Not sure really.  Never bothered.  Sorry.


Post-Chorus:
-------------------------|
-------------------------|
-------------------------|
-------------------------|
---------5-3-5--------5--|
-0-0-0-3-------0-0-0-3---|

Then goes back into Verse and repeat.


"Solo":

---------------------------|
-14brbrbrbrb---------------|
---------------------------|
---------------------------|
----------------5----------|
--------------3------------|

Play the 14th sorta like a large vibrato.

There's all there really is to it.
Related for Beneath The Underdog tab