Song name
# A B C D E F G H I J K L M N O P Q R S T U V W X Y Z

Union 13 - Over The Hill tab

-----------------------------------------------------------------------------
     Over The Hill - Union 13
-----------------------------------------------------------------------------
Tabbed by: Tony Nguyen
Email: Private.Lagzo@gmail.com

Tuning: Standard

 Intro & Verse - Some Palm Muting, Figure out the rhythm.
e|-------------------------------------------------------------------------|
B|-------------------------------------------------------------------------|
G|-7---9-------------------------------------------------------------------|
D|-7-7-9-5-----------------------------------------------------------------|
A|-5-7-7-5-----------------------------------------------------------------|
E|---5---3-----------------------------------------------------------------|

 Chorus-
e|-------------------------------------------------------------------|
B|-------------------------------------------------------------------|
G|-7-----------------------------------------------------------------|
D|-7-7-5-------------------------------------------------------------|
A|-5-7-5-------------------------------------------------------------|
E|---5-3-------------------------------------------------------------|

 End on
e|---------------------------------------------------------------------------|
B|---------------------------------------------------------------------------|
G|-7-------------------------------------------------------------------------|
D|-7-------------------------------------------------------------------------|
A|-5-~-----------------------------------------------------------------------|
E|---------------------------------------------------------------------------|

| /  slide up
| \  slide down
| h  hammer-on
| p  pull-off
| ~  vibrato
| +  harmonic
| x  Mute note
===============================================================================
Tap to rate this tab
 
# A B C D E F G H I J K L M N O P Q R S T U V W X Y Z