Song name
# A B C D E F G H I J K L M N O P Q R S T U V W X Y Z

Union 13 - Falling Down tab

-----------------------------------------------------------------------------
     Falling Down - Union 13
-----------------------------------------------------------------------------
Tabbed by: Tony Nguyen
Email: Private.LaGzo@gmail.com
Tuning: Standard

Intro - 4x
e|---------------------------------------------------------------------------|
B|---------------------------------------------------------------------------|
G|-10------------------------------------------------------------------------|
D|-10--11-8--10--------------------------------------------------------------|
A|--8--11-8--10--------------------------------------------------------------|
E|-----9--6--8---------------------------------------------------------------|

Verse - 4x
e|---------------------------------------------------------------------------|
B|---------------------------------------------------------------------------|
G|------6666------5----------------------------------------------------------|
D|-3333-6666-3333-5----------------------------------------------------------|
A|-3333-4444-1111-3----------------------------------------------------------|
E|-1111----------------------------------------------------------------------|

Chorus - 4x
e|---------------------------------------------------------------------------|
B|---------------------------------------------------------------------------|
G|-7777-5555-6666-5-3--------------------------------------------------------|
D|-7777-5555-6666-5-3--------------------------------------------------------|
A|-5555-3333-4444-3-1--------------------------------------------------------|
E|---------------------------------------------------------------------------|

Intro - 2x
e|---------------------------------------------------------------------------|
B|---------------------------------------------------------------------------|
G|-10------------------------------------------------------------------------|
D|-10--11-8--10--------------------------------------------------------------|
A|--8--11-8--10--------------------------------------------------------------|
E|-----9--6--8---------------------------------------------------------------|

Verse - 4x
e|---------------------------------------------------------------------------|
B|---------------------------------------------------------------------------|
G|------6666------5----------------------------------------------------------|
D|-3333-6666-3333-5----------------------------------------------------------|
A|-3333-4444-1111-3----------------------------------------------------------|
E|-1111----------------------------------------------------------------------|

Chorus - 4x
e|---------------------------------------------------------------------------|
B|---------------------------------------------------------------------------|
G|-7777-5555-6666-5-3--------------------------------------------------------|
D|-7777-5555-6666-5-3--------------------------------------------------------|
A|-5555-3333-4444-3-1--------------------------------------------------------|
E|---------------------------------------------------------------------------|

Intro - 1x
e|---------------------------------------------------------------------------|
B|---------------------------------------------------------------------------|
G|-10------------------------------------------------------------------------|
D|-10--11-8--10--------------------------------------------------------------|
A|--8--11-8--10--------------------------------------------------------------|
E|-----9--6--8---------------------------------------------------------------|

Verse - 4x
e|---------------------------------------------------------------------------|
B|---------------------------------------------------------------------------|
G|------6666------5----------------------------------------------------------|
D|-3333-6666-3333-5----------------------------------------------------------|
A|-3333-4444-1111-3----------------------------------------------------------|
E|-1111----------------------------------------------------------------------|

End - 1x
e|---------------------------------------------------------------------------|
B|---------------------------------------------------------------------------|
G|-5~-3~---------------------------------------------------------------------|
D|-5~-3~-3~------------------------------------------------------------------|
A|-3~-1~-3~------------------------------------------------------------------|
E|-------1~------------------------------------------------------------------|
Tap to rate this tab
 
# A B C D E F G H I J K L M N O P Q R S T U V W X Y Z