Guitaretab - guitar tabs
Song name
# A B C D E F G H I J K L M N O P Q R S T U V W X Y Z

Union 13 - Realidad tab

intro/verse:
e|------------------------------------------------------------------------|
B|------------------------------------------------------------------------|
G|-44444444-7777777-------------------------------------------------------|
D|-44444444-7777777-44444444-5555-7777------------------------------------|
A|-22222222-5555555-44444444-5555-7777------------------------------------|
E|------------------22222222-3333-5555------------------------------------|
[ Tab from: http://www.guitaretab.com/u/union-13/62115.html ]
chorus:
e|------------------------------------------------------------------------|
B|------------------------------------------------------------------------|
G|-999999-12-12-12-12-12-777777-------------------------------------------|
D|-999999-12-12-12-12-12-777777-7-x-7-------------------------------------|
A|-777777-10-10-10-10-10-555555-7-x-7-------------------------------------|
E|------------------------------5-x-7-------------------------------------|

break:
e|------------------------------------------------------------------------|
B|------------------------------------------------------------------------|
G|-------9999-7777--------------------------------------------------------|
D|-99999-9999-7777-5555---------------------------------------------------|
A|-99999-7777-5555-5555---------------------------------------------------|
E|-77777-x----x----3333---------------------------------------------------|
   x               x

this is all you need to play. but you figure out the order.

| /  slide up
| \  slide down
| h  hammer-on
| p  pull-off
| ~  vibrato
| +  harmonic
| x  Mute note

questions

     crust_and_anguish_life@yahoo.com
Related for Realidad tab
Advertisement will be closed in 10 seconds