Song name
# A B C D E F G H I J K L M N O P Q R S T U V W X Y Z

Union 13 - Buscando La Verdad tab

-------------------------------------------------------------------------------
			     Buscando La Verdad - Union 13
-------------------------------------------------------------------------------
Tabbed by: Tony Nguyen
Email: Private.Lagzo@gmail.com
Tuning: Standard

Intro
e|---------------------------------------------------------------------------|
B|7h8p7h8p7-----------7------------------------------------------------------|
G|----------9-7-6-7/9--------------------------------------------------------|
D|---------------------------------------------------------------------------|
A|---------------------------------------------------------------------------|
E|---------------------------------------------------------------------------|

e|---------------------------------------------------------------------------|
B|---------------------------------------------------------------------------|
G|----------------------------------7----------------------------------------|
D|999999-777777-5555555--999999-777-7-7-55555--------------------------------|
A|999999-777777-5555555--999999-777-5-7-55555--------------------------------|
E|777777-555555-3333333--777777-555---5-33333--------------------------------|

e|---------------------------------------------------------------------------|
B|---------------------------------------------------------------------------|
G|----------------77777-55555-44444-7777777----------------------------------|
D|5555-4444-99999-77777-55555-44444-7777777----------------------------------|
A|5555-4444-77777-55555-33333-22222-5555555----------------------------------|
E|3333-2222------------------------------------------------------------------|

e|---------------------------------------------------------------------------|
B|---------------------------------------------------------------------------|
G|---------------------------7777777----77--5555-444-22-44-------------------|
D|5555555555555/101010101010-7777777-77-77--5555-444-22-44-------------------|
A|5555555555555/101010101010-5555555-77-55--3333-222-00-22-------------------|
E|3333333333333/88888888888----------55--------------------------------------|

e|---------------------------------------------------------------------------|
B|---------------------------------------------------------------------------|
G|99999999999-7777777------------5555-77777----------------------------------|
D|99999999999-7777777-5555555555-5555-77777----------------------------------|
A|77777777777-5555555-5555555555-3333-55555----------------------------------|
E|--------------------3333333333---------------------------------------------|

e|---------------------------------------------------------------------------|
B|---------------------------------------------------------------------------|
G|--------------7------------------------------------------------------------|
D|99999999-7777-7-7-55555555-44444444----------------------------------------|
A|99999999-7777-5-7-55555555-44444444----------------------------------------|
E|77777777-5555---5-33333333-22222222----------------------------------------|
                    ........ ........

e|---------------------------------------------------------------------------|
B|---------------------------------------------------------------------------|
G|99999999999-777777777-555555555-4444444-7777777----------------------------|
D|99999999999-777777777-555555555-4444444-7777777----------------------------|
A|77777777777-555555555-333333333-2222222-5555555----------------------------|
E|---------------------------------------------------------------------------|

e|---------------------------------------------------------------------------|
B|---------------------------------------------------------------------------|
G|----------------99999999999-777777777-555555555-4444444-7777777------------|
D|555555-4444444--99999999999-777777777-555555555-4444444-7777777------------|
A|555555-4444444--77777777777-555555555-333333333-2222222-5555555------------|
E|333333-2222222-------------------------------------------------------------|
  .. ..  .. ..
e|---------------------------------------------------------------------------|
B|---------------------------------------------------------------------------|
G|---------------------------7777777----77--5555-444-22-44-------------------|
D|5555555555555/101010101010-7777777-77-77--5555-444-22-44-------------------|
A|5555555555555/101010101010-5555555-77-55--3333-222-00-22-------------------|
E|3333333333333/88888888888----------55--------------------------------------|

e|---------------------------------------------------------------------------|
B|---------------------------------------------------------------------------|
G|99999999999-7777777------------5555-77777----------------------------------|
D|99999999999-7777777-5555555555-5555-77777----------------------------------|
A|77777777777-5555555-5555555555-3333-55555----------------------------------|
E|--------------------3333333333---------------------------------------------|

e|---------------------------------------------------------------------------|
B|---------------------------------------------------------------------------|
G|--------55---------55---------55---------55--------------------------------|
D|5555555-55-5555555-55-5555555-55-5555555-55-5~-----------------------------|
A|5555555-33-5555555-33-5555555-33-5555555-33-5~-----------------------------|
E|3333333----3333333----3333333----3333333----3~-----------------------------|


| .  palm mute
| /  slide up
| \  slide down
| h  hammer-on
| p  pull-off
| ~  vibrato
| +  harmonic
| x  Mute note
===============================================================================
Tap to rate this tab
# A B C D E F G H I J K L M N O P Q R S T U V W X Y Z