Song name
# A B C D E F G H I J K L M N O P Q R S T U V W X Y Z

Union Sqaure - Deceit tab

Union Square - Deceit 

Only Intro One guitar part sorry.

1. When the Intro when its only one guitar.

E|-----------------------------------------------------------------------|
A|-----------------------------------------------------------------------|
D|--7/9-9-9-9-9/7---7/9-9-9-9-9/7----------------------------------------|
G|-----------------------------------------------------------------------|
B|-----------------------------------------------------------------------|
E|-----------------------------------------------------------------------|

2. When all the intstruments kicks in!

E|-----------------------------------------------------------------------|
A|-----------------------------------------------------------------------|
D|-7/9-9-9-9-9/7---7/9-9-9-9-9/7--10-10-10-10--9-9-9-9--7-7-7-7--5-5-5-5-|
G|-----------------------------------------------------------------------|
B|-----------------------------------------------------------------------|
E|-----------------------------------------------------------------------|


E|-----------------------------------------------------------------------|
A|---------------------------------7--9----------------------------------|
D|--7/9-9-9-9-9/7---7/9-9-9-9-9/7----------------------------------------|
G|-----------------------------------------------------------------------|
B|-----------------------------------------------------------------------|
E|-----------------------------------------------------------------------|
Tap to rate this tab
 
# A B C D E F G H I J K L M N O P Q R S T U V W X Y Z