Song name
# A B C D E F G H I J K L M N O P Q R S T U V W X Y Z

Union Underground - Across The Nation tab

Hey this is my first tab so yeh here goes

The very start is done with the bass. the intro starts when it says "...sex the guns the freaks the frauds" "c'mon, c'mon, c'mon!"

Intro
|----------------------------------------------------
|----------------------------------------------------
|----------------------------------------------------
|--55-55-55------55-55-55----------------------------
|--55-55-55------55-55-55----------------------------
|--33-33-33------33-33-33----------------------------

Chorus 
|----------------------------------------------------
|----------------------------------------------------
|----------------------------------------------------
|--2-22-5-5-2----------------------------------------
|--2-22-5-5-2----------------------------------------
|--0-00-3-3-0-0-2-3-5-0-1----------------------------

(i know this doesnt really sound right but its hard to tell)

Verse - This is played with very heavy distortion (it sounds good with the tone down to 0, which means you will have to be quick putting it back up)
|---------------------------------------------------------------------------
|---------------------------------------------------------------------------
|---------------------------------------------------------------------------
|--2-5--2-5-3---------2-5--2-5-5-3-5-2-5/3---55-55-55-----------------------
|--2-5--2-5-3-(x2)----2-5--2-5-5-3-5-2-5/3---55-55-55-----------------------
|--0-3--0-3-1---------0-3--0-3-3-1-3-0-3/1---33-33-33-0-2-3-5-0-1-----------

Chorus 
|----------------------------------------------------
|----------------------------------------------------
|----------------------------------------------------
|--2-22-5-5-2----------------------------------------
|--2-22-5-5-2----------------------------------------
|--0-00-3-3-0-0-2-3-5-0-1----------------------------

Verse
|---------------------------------------------------------------------------
|---------------------------------------------------------------------------
|---------------------------------------------------------------------------
|--2-5--2-5-3---------2-5--2-5-5-3-5-2-5/3---55-55-55-----------------------
|--2-5--2-5-3-(x2)----2-5--2-5-5-3-5-2-5/3---55-55-55-----------------------
|--0-3--0-3-1---------0-3--0-3-3-1-3-0-3/1---33-33-33-0-2-3-5-0-1-----------

Chorus 
|----------------------------------------------------
|----------------------------------------------------
|----------------------------------------------------
|--2-22-5-5-2----------------------------------------
|--2-22-5-5-2----------------------------------------
|--0-00-3-3-0-0-2-3-5-0-1----------------------------

Interlude
|------------------------
|------------------------
|------------------------
|------------------------
|------------------------
|-0-2-3-5-0-1b-----------

Chorus 
|----------------------------------------------------
|----------------------------------------------------
|----------------------------------------------------
|--2-22-5-5-2----------------------------------------
|--2-22-5-5-2----------------------------------------
|--0-00-3-3-0-0-2-3-5-0-1----------------------------

End on
|-------
|-------
|-------
|---2---
|---2---
|---0---

Well thats pretty much it so if you have any questions or corrections, email me at blink_182_rulz_@hotmail.com. bye :D
Tap to rate this tab
 
# A B C D E F G H I J K L M N O P Q R S T U V W X Y Z