Song name
# A B C D E F G H I J K L M N O P Q R S T U V W X Y Z

Union Underground - South Texas Deathride tab

Help us improve GuitareTab! Take a short survey!
union underground- south texas deathride
from the album: ...an education in rebellion
tabbed by: alex

riff #1
E----------------------------------------------------|
B----------------------------------------------------|
G-------3---------3-------------3---------3----------|
D--3-2----2--3-2----2-0-3--3-2----2--3-2----2-0-3----|
A----------------------------------------------------|
E----------------------------------------------------|

riff #2
E----------------------------------------------------------------------------|
B----------------------------------------------------------------------------|
G-----------3-----------------3-----------------3-----------------3----------|
D--3-2-0-2----2-0-3--3-2-0-2----2-0-3--3-2-0-2----2-0-3--3-2-0-2----2-0-3----|
A----2-0-2----2-0-3----2-0-2----2-0-3----2-0-2----2-0-3----2-0-2----2-0-3----|
E----2-0-2----2-0-3----2-0-2----2-0-3----2-0-2----2-0-3----2-0-2----2-0-3----|

riff 3
(guitar 1)
E-------------------------------------------------------------------------------------|
B-------------------------------------------------------------------------------------|
G-------------------------------------------------------------------------------------|
D-------------------------------------------------------------------------------------|
A-------------------------------------------------------------------------------------|
E--0-2-2-0-2-2-2-0-2-2--0-2-2-0-2-2-2-0-2-2--0-2-2-0-2-2-2-0-2-2--0-2-2-0-2-2-2-0-2-2-|

(guitar 2)
E---------------------------------------------|
B------------6--------------------------------|
G------------5---------5-------------------5--| 
D------------3---------5----------5--------5--|
A----------------------3----------5--------3--|
E---------------------------------3-----------| slide your pick down string

riff #4
(guitar 1)
E-------------------------------------------------------------------------------------|
B-------------------------------------------------------------------------------------|
G-------------------------------------------------------------------------------------|
D-------------------------------------------------------------------------------------|
A-------------------------------------------------------------------------------------|
E--0-2-2-0-2-2-2-0-2-2--0-2-2-0-2-2-2-0-2-2--0-2-2-0-2-2-2-0-2-2--0-2-2-0-2-2-2-0-2-2-|

(guitar 2)
E----------------------------------------------------------0---------------0--------|
B------------6-------------------------------11-12-11-12-11--11-12-11-12-11--11-12--|
G------------5---------5-------------------5----------------------------------------| 
D------------3---------5----------5--------5----------------------------------------|
A----------------------3----------5--------3----------------------------------------|
E---------------------------------3-------------------------------------------------|

slide up string

riff #5- (WHAT IF I WAS YOUR GUIDE?!)
(guitar 1)
E-------------------------------------------------------------------------------|
B-------------------------------------------------------------------------------|
G-------------------------------------------------------------------------------|
D--0-2-2-0-2-0-2-0-2-0-2-2-0-2-0-2-0-2-0-2-2-0-2-0-2-0-2-0-2-2-0-2-0-2-0-2------|
A--0-2-2-0-2-0-2-0-2-0-2-2-0-2-0-2-0-2-0-2-2-0-2-0-2-0-2-0-2-2-0-2-0-2-0-2------|
E--0-2-2-0-2-0-2-0-2-0-2-2-0-2-0-2-0-2-0-2-2-0-2-0-2-0-2-0-2-2-0-2-0-2-0-2------|

(guitar 2)
E----------------------------------------------------------0---------------0--------|
B------------6-------------------------------11-12-11-12-11--11-12-11-12-11--11-12--|
G------------5---------5-------------------5----------------------------------------| 
D------------3---------5----------5--------5----------------------------------------|
A----------------------3----------5--------3----------------------------------------|
E---------------------------------3-------------------------------------------------|

slide up string

riff #6 (solo)
E--------------------------17-17-17-17-------------------------17-17-17-17----------|
B--12p11-12p11-12p11-12p11-------------12p11-12p11-12p11-12p11----------------------|
G-----------------------------------------------------------------------------------|
D-----------------------------------------------------------------------------------|
A-----------------------------------------------------------------------------------|
E-----------------------------------------------------------------------------------|

E--------------------------17-17-17-17----------------------------18--18-18---------|
B--12p11-12p11-12p11-12p11-------------12p11-12p11-12-12-12-12/21---17-----17-------|
G-----------------------------------------------------------------------------------|
D-----------------------------------------------------------------------------------|
A-----------------------------------------------------------------------------------|
E-----------------------------------------------------------------------------------|

E-----------------18-18----18-18----------------------------------------------------|
B--15p11-12-15-12-------17-------17-11-12/21----------------------------------------|
G-----------------------------------------------------------------------------------|
D-----------------------------------------------------------------------------------|
A-----------------------------------------------------------------------------------|
E-----------------------------------------------------------------------------------|

slide pick down string

riff #7
E------|
B------|
G------| let it ring
D--0---|
A--0---|
E--0---|

order
riff #1
riff #2
riff #3
riff #4
riff #2 x2
riff #3
riff #5
riff #6
riff #7

lyrics
take a look in my mind and justify
hell, i might even sympathize
(why must you fuck with these things in my head
for so long that i feel i could break)
never forget your lies, hypocrisize
five million might change your mind
(why must you fuck with these things in my head
for so long that i feel i could break)

so cmon cmon cmon get up get up
so cmon cmon cmon get up get up

so cmon cmon cmon get up get up
south texas deathride you motherfuck
so cmon cmon cmon get up get up
south texas man im livin it up

so what if i was your guide, south texas deathride
like i said i might sympathize
(why must you fuck with these things i believe
man its guilt by association)
so what if i was your guide, south texas deathride
like i said i might sympathize
(why must you fuck with these things i believe
man its guilt by association)

so cmon cmon cmon get up get up
so cmon cmon cmon get up get up

so cmon cmon cmon get up get up
south texas deathride you motherfuck
so cmon cmon cmon get up get up
south texas man im livin it up
Related for South Texas Deathride tab