Song name
# A B C D E F G H I J K L M N O P Q R S T U V W X Y Z

Union Youth - Sister tab

Help us improve GuitareTab! Take a short survey!
#----------------------------------PLEASE NOTE--------------------------------#
#This file is the author's own work and represents their interpretation of the#
#song. You may only use this file for private study, scholarship, or research.#
#-----------------------------------------------------------------------------#

Author/Artist: Union Youth
Title: Sister
Album: And Somebody said that he should go
Tabbed by: Jan Schuster
Email: admin@janschuster.com

Tuning: Eb Ab Db Gb Bb eb (Normal tuning then half step down)


INTRO (distorted)
"""""
E|--------------------------------------------------------------------------|
B|--------------------------------------------------------------------------|
G|--------------------------------------------------------------------------|
D|--6-x-6-6-2--6-x-6-6-2---6--22-55-66--------------------------------------|
A|--6-x-6-6-2--6-x-6-6-2---6--22-55-66--------------------------------------|
E|--4-x-4-4-0--4-x-4-4-0---4--00-33-44--------------------------------------|

VERSE (clean)
"""""
E|--------------------------------------------------------------------------|
B|--------------------------------------------------------------------------|
G|--------------------------------------------------------------------------|
D|--6-x-6-6-2--6-x-6-6-2---6--22-55-66--------------------------------------|
A|--6-x-6-6-2--6-x-6-6-2---6--22-55-66--------------------------------------|
E|--4-x-4-4-0--4-x-4-4-0---4--00-33-44--------------------------------------|

CHORUS (distorted)
""""""
E|--------------------------------------------------------------------------|
B|--------------------------------------------------------------------------|
G|-6666666666-88------------------------------------------------------------|
D|-6666666666-88--66666666-9999---------------------------------------------|
A|-4444444444-66--66666666-9999---------------------------------------------|
E|----------------44444444-7777---------------------------------------------|

E|--------------------------------------------------------------------------|
B|--------------------------------------------------------------------------|
G|--------------------------------------------------------------------------|
D|--6--22--55--66-----------------------------------------------------------|
A|--6--22--55--66-----------------------------------------------------------|
E|--4--00--33--44-----------------------------------------------------------|

VERSE (clean)
"""""
E|--------------------------------------------------------------------------|
B|--------------------------------------------------------------------------|
G|--------------------------------------------------------------------------|
D|--6-x-6-6-2--6-x-6-6-2---6--22-55-66--------------------------------------|
A|--6-x-6-6-2--6-x-6-6-2---6--22-55-66--------------------------------------|
E|--4-x-4-4-0--4-x-4-4-0---4--00-33-44--------------------------------------|

CHORUS (distorted)
""""""
E|--------------------------------------------------------------------------|
B|--------------------------------------------------------------------------|
G|-6666666666-88------------------------------------------------------------|
D|-6666666666-88--66666666-9999---------------------------------------------|
A|-4444444444-66--66666666-9999---------------------------------------------|
E|----------------44444444-7777---------------------------------------------|

E|--------------------------------------------------------------------------|
B|--------------------------------------------------------------------------|
G|--------------------------------------------------------------------------|
D|--6--22--55--66-----------------------------------------------------------|
A|--6--22--55--66-----------------------------------------------------------|
E|--4--00--33--44-----------------------------------------------------------|

SOLO (distorted)
""""
E|--------------------------------------------------------------------------|
B|--------------------------------------------------------------------------|
G|--------------------------------------------------------------------------|
D|-11^-9--11^--16/18--18-18--20-19-17-16------------------------------------|
A|--------------------------------------------------------------------------|
E|--------------------------------------------------------------------------|

OUTRO
"""""
Just Bass
Related for Sister tab