Song name
# A B C D E F G H I J K L M N O P Q R S T U V W X Y Z

United Live - All Day tab

All Day
Artist: Hillsong United Live
tunning: standard
Album : More than Life
tabbed by Ferdinand bato

Intro: G#m-Em-B-F#M
e|-------------------------------------|
B|-------------------------------------|
G|----------------1------1h2-----------|
D|------------2-2---2-2----------------|
A|--------1h2----------------------2h1-|
E|--4--4---------------------2-2-------|

lead part
e|-------------------------------------------------------------------------11s12\11--|
B|--12-12-11-11-12-12---12-12-11-11-12-12---12-12-11-11-12-12---12-12-11-11----------|
G|-------------------9\8-----------------9\8-----------------9\8---------------------|
D|-----------------------------------------------------------------------------------|
A|-----------------------------------------------------------------------------------|
E|-----------------------------------------------------------------------------------|
Tap to rate this tab
 
# A B C D E F G H I J K L M N O P Q R S T U V W X Y Z