Song name
# A B C D E F G H I J K L M N O P Q R S T U V W X Y Z

United Live - Now That Your Near tab

Now That Your Near
artist: United Live
tuning: EADGBe
Tabbed By Ferdinand Bato
e-mail: tobatits0405@yahoo.com

Intro: 

e|--------------------------------|
B|--------------------------------|
G|----13--14--16--14----(repeat)--|
D|--------------------------------|
A|----11--12--14--12--------------|
E|--------------------------------|


Pre-chorus:

e|--------------------------------|
B|--------------------------------|
G|---6--9--11s13-13--8------------|
D|----------------------(repeat)--|
A|---4--7---9s11-11--6------------|
E|--------------------------------|

bridge:

e|----------------------------------|
B|----------------------------------|
G|-------------------(repeat)-------|
D|-------9-------9------9-------9---|
A|------------------7-7-------------|
E|---9-9---5-5-5----------7-7-7-----|
Tap to rate this tab
 
# A B C D E F G H I J K L M N O P Q R S T U V W X Y Z