Song name
# A B C D E F G H I J K L M N O P Q R S T U V W X Y Z

United Live - Time Has Come tab

Song: 		* (An Introduction)
Artist: 	        United Live
Album: 	        United We Stand
Tabbed by: 	Jeff Ku (jeffku@comcast.net)

Sorry for all you guys looking for this, I've actually had it tabbed out for a year 
but was too lazy to format it.
I'm 90% sure this is at least 95% accurate as far as my ears can tell (and I listened to 
a lot, trust me) =D
By the way, you gotta figure out the timing yourself, but i spaced it out a little to 
you.
email me for questions.
Enjoy!

Guitar 1 (all 16th notes)
  0'00                            0'20
|-------------------------------------------------------------------|
|-10--12-14-9--12-14-----12-14----10--12-14-9--12-14----------------|
|--------------------11--------9---------------------11--14-13-9----|
|-------------------------------------------------------------------|
|-------------------------------------------------------------------|
|-------------------------------------------------------------------|

  0'34     0'59                    1'10                              1'25
|------------------------------10--12--------10--12--9--------10--12-12\5----|
|-10-9-10--12--12-14-10--12-14---------12-14------------12-14----------------|
|----------------------------------------------------------------------------|
|----------------------------------------------------------------------------|
|----------------------------------------------------------------------------|
|----------------------------------------------------------------------------|

Guitar 2 (all 8th notes)
0'20         0'33        0'46        1'00            1'13	      1'25  <--let it ring, 
1 takes over
|------------------------------------7--9-5--4-7-5---7--9-5--4-7-5----5---|
|------------3/5-2--3-5--3-5-2--3-5-----------------------------------5---|
|-------------------------------------------------------------------------|
|-4-2-0-2-----------------------------------------------------------------|
|-------------------------------------------------------------------------|
|-------------------------------------------------------------------------|

***************************************************************************************
* Generated using Power Tab Editor by Brad Larsen - http://powertab.guitarnetwork.org *
***************************************************************************************
Tap to rate this tab
# A B C D E F G H I J K L M N O P Q R S T U V W X Y Z