Song name
# A B C D E F G H I J K L M N O P Q R S T U V W X Y Z

United Live - From God Above tab

I havent seen a really good one here . so ill post it ^_^

From God Above -this is 95% complete and correct :D

Guitar 1 -- drop D ..which is Eb Bb Gb Db Ab eb
Guitar 2 -- Standard  tuning E B G D A e

Intro

Guitar 1

Eb|---------------------<5>(x2)----|
Bb|-<7>(x12)---<5>(x2)-------------|
Gb|--------------------------------| x2
Db|--------------------------------|
Ab|--------------------------------|
eb|--------------------------------|

Eb|------9-10------|
Bb|-9-10-----------|
Gb|----------------|
Db|----------------|
Ab|----------------|
eb|----------------|

Guitar 2

E|----------------------|
B|----------------------|
G|------6-6--3-3--8-8---|
D|-3-3--6-6--3-3--8-8---|
A|-3-3--4-4--1-1--6-6---|
e|-1-1------------------|

E|--------------------------|
B|--------------------------|
G|------6-6--3-3-3-3-3-3----|
D|-3-3--6-6--3-3-3-3-3-3----|
A|-3-3--4-4--1-1-1-1-1-1----|
e|-1-1----------------------|

Verse  1

Guitar 1 plays only the first part of the intro (the harmonics only)

Eb|---------------------<5>(x2)----|
Bb|-<7>(x12)---<5>(x2)-------------|
Gb|--------------------------------| x2
Db|--------------------------------|
Ab|--------------------------------|
eb|--------------------------------|

Guitar 2 plays its intro

E|----------------------|
B|----------------------|
G|------6-6--3-3--8-8---|
D|-3-3--6-6--3-3--8-8---|
A|-3-3--4-4--1-1--6-6---|
e|-1-1------------------|

E|--------------------------|
B|--------------------------|
G|------6-6--3-3-3-3-3-3----|
D|-3-3--6-6--3-3-3-3-3-3----|
A|-3-3--4-4--1-1-1-1-1-1----|
e|-1-1----------------------|

Pre-Chorus

Guitar 1

Eb|-------------------------------------9---------9----|
Bb|-----------------------------------10--10---10--10--|
Gb|-9h11-9--9h11-9--9h11-9--9h11-9--11------11---------|
Db|----------------------------------------------------|
Ab|----------------------------------------------------|
eb|----------------------------------------------------|

Eb|----9---12-10-9------------------------9------------|
Bb|--10-10---------10----9h11-9(x4)-----10--10(x6)-----|
Gb|-9---------------------------------11---------------|
Db|----------------------------------------------------|
Ab|----------------------------------------------------|
eb|----------------------------------------------------|

Guitar 2

C# G#

Chorus

Guitar 2
G# D# Fm C# Fm D# C C#

Guitar 1
A E F# D F# E C# D

Verse 2

Guitar 1 plays its whole intro
Guitar 2 plays its intro

Pre-Bridge

Guitar 1

Eb|-------------------------------|
Bb|-12-14~-------10-12~-9~--------|
Gb|---------9-11-----------11~----|
Db|-------------------------------|
Ab|-------------------------------|
eb|-------------------------------|

Bridge

some C# G#(guitar 2) etc..i didnt look at the chords.
Guitar 1 uses a glass slide..i dont know how to :P
Tap to rate this tab
# A B C D E F G H I J K L M N O P Q R S T U V W X Y Z