Song name
# A B C D E F G H I J K L M N O P Q R S T U V W X Y Z

United Live - You Are My World tab

You Are My World 
artist: United Live
Tabbed By Ferdinand Bato


this song is really started with piano then the lead guitar for the intro.

intro and verses:Em-C-G-D 2x


e|-----------------------------------------------------|
B|---8-7-8-7-8-7-5-7-8-7-8-7-8---10-8-8-----8-8-10-7---|
G|-----------------------------------------------------|
D|-----------------------------------------------------|
A|-----------------------------------------------------|
E|-----------------------------------------------------|

pre-chorus:Am7-C-Dsus-D 2x

e|---------------------|
B|---8-7-5-5---7--8--7-|
G|---------------------|
D|---------------------|
A|---------------------|
E|---------------------|


e|----------------------|
B|---8-7-5-7---8--8--10-|
G|----------------------|
D|----------------------|
A|----------------------|
E|----------------------|

chorus: G-D-C-D
        G-D-C-Cm 2x


e|-------7-7-|-------7----|--------7-8-7------------|
B|-8-10------|--8-10---10-|--8-10--------10-8-8-----|
G|-----------|------------|-------------------------|
D|-----------|------------|-------------------------|
A|-----------|------------|-------------------------|
E|-----------|------------|-------------------------|

repeat all and change the last chord Cm to D of the last part of the chorus.
do intro chords for instrumentals...do the chorus for 2x.

proceed to pre-chorus tabs and chords..
repeat chorus for 2x..




Tap to rate this tab
# A B C D E F G H I J K L M N O P Q R S T U V W X Y Z