Song name
# A B C D E F G H I J K L M N O P Q R S T U V W X Y Z

United Live - There Is Nothing Like tab

-------------------------------------------------------------------------------
		There is Nothing Like - United Live (Hillsongs)
-------------------------------------------------------------------------------
Tabbed by:Quinn Martin
Email:martinq312@gmail.com

Tuning: Standard

Intro:

Guitar 1 (overdrive):
e|---------------------------------------------------------------------------|
B|-----7--9--------9--7----------7--9------9--7------------------------------|
G|--6-----------6-------------6---------6------------------------------------|
D|---------------------------------------------------------------------------|
A|---------------------------------------------------------------------------|
E|---------------------------------------------------------------------------|

Guitar 1 continues to play above riff and Guitar 2 comes in with:

e|---------------------------------------------------------------------------|
B|----7h9-7\5-5h7--------5h7-7/9-7\5-5h7-4-----------------------------------|
G|--6-------------4--4h6-----------------------------------------------------|
D|---------------------------------------------------------------------------|
A|---------------------------------------------------------------------------|
E|---------------------------------------------------------------------------|

Verse: Continue playing above riffs

Prechorus:

Guitar 1:
e|---------------------------------------------------------------------------|
B|--7-9-------7-9------7-9----------7----------------------------------------|
G|------------------------------4h6------------------------------------------|
D|---------------------------------------------------------------------------|
A|---------------------------------------------------------------------------|
E|---------------------------------------------------------------------------|

Chorus:

Guitars 1 and 2:

e|-5-----4-----5-----0-----7-------------------------------------------------|
B|-5-----5-----5-----0-----7-------------------------------------------------|
G|-6-x8--4-x4--6-x4--1-x8--8-------------------------------------------------|
D|-7-----6-----7-----2-----9-------------------------------------------------|
A|-7-----4-----7-----2-----9-------------------------------------------------|
E|-5-----------5-----0-----7-------------------------------------------------|

Go back into the riffs for verse 2, then the first intro riff comes back in 
during a couple of breaks. Have fun!


| /  slide up
| \  slide down
| h  hammer-on
| p  pull-off
| ~  vibrato
| +  harmonic
| x  Mute note
===============================================================================
Tap to rate this tab
 
# A B C D E F G H I J K L M N O P Q R S T U V W X Y Z