Song name
# A B C D E F G H I J K L M N O P Q R S T U V W X Y Z

United Live - Solution tab

Help us improve GuitareTab! Take a short survey!
The tabs for "Solution" by Hillsong united..

listen to the song at www.myspace.com/hillsongunited

key of B

Intro and verse
Main riff

E|-----------------------|
B|----555-4-5-----44-2-0-|
G|-----------------------|
D|-646---------444-------|
A|-----------------------|
e|-----------------------|

Verse 1
 
            B              F#
it is not a human right to stare, not fight
      E
while broken nations dream
             B                 F# 
open up our eyes O' blind that we might find
    E
the mercy for the need



Pre-Chorus-riff 2 (G#m E B F#) (hey now..fill our hearts.....)

E|----------14141414---|
B|-12-11-12------------|
G|---------------------|   Play this 2 times then ...
D|---------------------|
A|---------------------|
e|---------------------|

E|----------1414-1212-1111-99----|
B|-12-11-12-------------------11-|
G|-------------------------------|
D|-------------------------------|
A|-------------------------------|
e|-------------------------------|

G#m E
hey now 
         B                F#
fill our hearts with Your compassion
G#m E
hey now 
      B           F#
as we hold to our confession

Back to main riff of intro (interlude)

Verse 2(same as verse 1)

E|---14-12-alternate pick 
B|-12------

it is not too far a cry, too much to try
to help the least of these
politics will not decide if we should rise 
and be Your hands and feet

Pre-chorus

Chorus

     E
whoa oh oh
 B           F# 
God be the solution
       E
whoa oh oh
 B          F#              C#m         E (play D#m before going to bridge)
we will be your hands and be your feet

Interlude

Verse 3(same as verse 1)

higher than all circumstance You promised then 
Your love for all to see
higher than our protest lies and dollar signs
Your love is all we need

Solo 

E|------------------------------------
B|------------------------------------
G|-------11---11---151515-1313-1111---
D|-131313---13---13-------------------
A|------------------------------------
e|------------------------------------

E|------------------------------------
B|-------------------141414-1212-1111-
G|-------11---11----------------------
D|-131313---13---13-------------------
A|------------------------------------
e|------------------------------------

E|----------------------------------------------------
B|-----------------------------------141414-1212-1111-
G|-------11---11---151515-1313-1111-------------------
D|-131313---13---13-----------------------------------
A|----------------------------------------------------
e|----------------------------------------------------

E|-14141414-1212-16s18-16------|
B|-----------------------------|
G|-----------------------------|
D|-----------------------------|
A|-----------------------------|
e|-----------------------------|


Bridge

Guitar 1 

E|-11-------12--------11-------9----------
B|----12-------12--------12------11-------
G|-------13-------13--------11------11----
D|----------------------------------------
A|----------------------------------------
e|----------------------------------------

after playing that for 2 times on bridge

Guitar 2 
E|--------------
B|-16-17-16-14--
G|-------------- alternate pick after 2 times 
D|--------------
A|--------------
e|--------------

     G#m                    E
only You can mend the broken heart
    B                 F#
and cause the blind to see
    G#m                   E
Your grace completes the sinners path
    B                 F#
and set the captives free
      G#m                  E
only You can take the widow's cry
    B                  F#
and cause her heart to sing
   G#m                E
be the father to the fatherless
    B              F#
our Savior and our King


        G#m                  E
we will be Your hand we will be Your feet
         B                  F#
we will run this race for the least of these
    G#m                   E
in the darkest place we will be Your light
B           F#
we will be Your light


G#m 
we will run
E
we will run
B              F#
we will run with the solution

E|------------------------------------
B|------------------------------------
G|-------11---11---151515-1313-1111---
D|-131313---13---13-------------------
A|------------------------------------
e|------------------------------------

E|------------------------------------
B|-------------------141414-1212-1111-
G|-------11---11----------------------
D|-131313---13---13-------------------
A|------------------------------------
e|------------------------------------

E|----------------------------------------------------
B|-----------------------------------141414-1212-1111-
G|-------11---11---151515-1313-1111-------------------
D|-131313---13---13-----------------------------------
A|----------------------------------------------------
e|----------------------------------------------------

E|-14141414-1212-16s18-16------|
B|-----------------------------|
G|-----------------------------|
D|-----------------------------|
A|-----------------------------|
e|-----------------------------|


2nd time
E|------------------------------------
B|------------------------------------
G|-------11---11---151515-1313-1111---
D|-131313---13---13-------------------
A|------------------------------------
e|------------------------------------

E|------------------------------------
B|-------------------141414-1212-1111-
G|-------11---11----------------------
D|-131313---13---13-------------------
A|------------------------------------
e|------------------------------------

E|----------------------------------------------------
B|-----------------------------------141414-1212-1111-
G|-------11---11---151515-1313-1111-------------------
D|-131313---13---13-----------------------------------
A|----------------------------------------------------
e|----------------------------------------------------

E|-191919--181818--16----------|
B|-----------------------------|
G|-----------------------------|
D|-----------------------------|
A|-----------------------------|
e|-----------------------------|


Play chorus again.. then with the solo when singing : we'll rise, we'll rise...etc

and at the end of the solo play :

E|-191919-181818-16---it ends on 16..
Related for Solution tab