Song name
# A B C D E F G H I J K L M N O P Q R S T U V W X Y Z

United Live - Not Be Shaken tab

Not Be Shaken 
artist: United live
tabbed by Ferdinand Bato
e-mail: tobatits_0405@yahoo.com


e|-------------------------------------------------------|
B|-------------------------------------------------------|
G|-------------------------------------------------------|
D|-------------------------------------------------------|
A|---9/11--9/0--9/12--9/11--9/11--9/11--9/0--9/12--9/11--|
E|---0-----0----0-----0-----0-----0-----0----0-----0-----|


e|--------------------------------|
B|--------------------------------|
G|----13--14--16--14----(repeat)--|
D|--------------------------------|
A|----11--12--14--12--------------|
E|--------------------------------|


e|------------------------------------------------|
B|------------------------------------------------|
G|------------------------------------------------|
D|-----------------------------11--9--7--6--4--2--|
A|----9/12--9/11--9/11--9/11---11--9--7--6--4--2--|
E|----9-------------------------9--7--5-----------|


then play A and B and then keep repeating this. For the chorus play
E,B,A
B
E,B.A
B
E,B,A
B
B

Note: figure the right strumming out for yourself 
and palm mute the G,B and E strings

Tap to rate this tab
# A B C D E F G H I J K L M N O P Q R S T U V W X Y Z