Song name
# A B C D E F G H I J K L M N O P Q R S T U V W X Y Z

Unjoy - Worthless tab

-------------------------------------------------------------------------------
                             Worthless - Unjoy (Intro)
-------------------------------------------------------------------------------
Tabbed by: Joseph Persie

use heavy distortion

Tuning: standard

e|-----------------------------------------------------------------------------|
B|-----------------------------------------------------------------------------|
G|----2------------------------------------------------------------------------|
D|---2-3-----3----03----0---0----0---0-----------------------------------------|
A|---------03----2-----3-3-3-3--2-2-2-2----------------------------------------|
E|-5------1-----3-----1---1----1---1-------------------------------------------|
Tap to rate this tab
# A B C D E F G H I J K L M N O P Q R S T U V W X Y Z