Song name
# A B C D E F G H I J K L M N O P Q R S T U V W X Y Z

Unkle - Rabbit In Your Headlights tab

-------------------------------------------------------------------------------
			     Rabbit In Your Headlights - UNKLE
-------------------------------------------------------------------------------
Tabbed by:willistabs
Email:maxwillis@yahoo.co.uk

Tuning:EADGBE

e|0------0------------------------------------------------------------------|
B|--------------------------------------------------------------------------|
G|----------------0------0--------------------------------------------------|
D|-----0-----0---------0---0--------0---------------------------------------|
A|---------0-----------------0----0-----------------------------------------|
E|--12---------12---12---------12-----12------------------------------------|

Seriously simple but nice riff. great for beginners, dont let the notes ring out, 
itll make it sound awful.


| /  slide up
| \  slide down
| h  hammer-on
| p  pull-off
| ~  vibrato
| +  harmonic
| x  Mute note
==============================================================================
Tap to rate this tab
# A B C D E F G H I J K L M N O P Q R S T U V W X Y Z