Song name
# A B C D E F G H I J K L M N O P Q R S T U V W X Y Z

Unknown Hinson - Silver Platter tab

Tabbed by: Duncan Cannon (MalakianCopyCat)
Email: duncanjdms@Hotmail.com

Tuning: 440 (Standard)

e|----------------------------|
B|----------------------------|
G|-------------2---------2-2--|
D|-------------2---------2-2--|
A|-------------0-3b-0----0-0--|
E|-0-0-2-2-3-3--------3b------|

I Seen in a video where he was playing the old rockabilly thing
the E to G Thing or whatever it's Called
e|-------------------------|
B|-------------------------|
G|-------------------------|
D|-2-2-2-2-----2-2-2-2-----|
A|-2-2-2-2-----0-0-3-3--x8-|
E|-0-0-3-3--x8-------------|

This is the basic backbone structure of this song. he does his solos and fills different 
every show so there's no use to tab something that changes every night haha.


As The King Says
"You Listen To Rawk....Your goin straight to hell"

Keep On Truckin.
Tap to rate this tab
# A B C D E F G H I J K L M N O P Q R S T U V W X Y Z