Song name
# A B C D E F G H I J K L M N O P Q R S T U V W X Y Z

Unknown Mortal Orchestra - Boy Witch tab

-----------------------------------------------------------------
Boy Witch - Unknown Mortal Orchestra
-----------------------------------------------------------------
Tabbed by: mjohnson1915
Tuning: Standard

INTRO

e|-11~~/6----------------------------11----11--14-12-11h12p11---|
B|-11~~--9-8-8----7-------6------9h11--9h11--9---------------14-|
G|-13~~-------8-9---8-9-8---8-6-8-------------------------------|
D|-13~~---------------------------------------------------------|
A|-X------------------------------------------------------------|
E|-12~~---------------------------------------------------------|

e|-11-----------------------------6-6---7\-|-2-6-|-x-|
B|---14-11-10-----------------7---7-7h9-7\-|-4-4-|-x-|
G|------------8-x-8-8-x-8-8-x-6h8-8-8---8\-|-3-4-|-1-|
D|------------8-x-8-8-x-8-8-x--------------|-4-4-|-1-|
A|-----------------------------------------|-----|-2-|
E|-----------------------------------------|-----|-4-|

VERSE (Arpeggiated)

e|-----x-2-x-0-x-x-x---x-x-0-x-x------------------------|
B|-----x-2-2-0-2-0-1---2-4-0-3-2-9----------------------|
G|-----5-5-2-1-2-1-1---1-2-1-3-2--11-9-8-7-9-11-7-6-----|
D|-----6-3-2-2-2-1-1---3-2-2-3-2--------------------7-5-|
A|-----6-4-4-2-4-2-3-6-4-4-2-1-4------------------------|
E|-3-6-4-2-5-0-5-x-x---x-x-0-x-x----------------------6-|

BRIDGE (Arpeggiated)

E|-x-4-3-3-1-0-|
B|-6-4-4-3-1-2-|
G|-7-7-3-3-1-3-|
D|-5-5-5-3-1-2-|
A|-x-6-6-5-3-1-|
E|-6-4-3-3-1-0-|


| /  slide up
| \  slide down
| H  hammer-on
| p  pull-off
| ~  vibrato
| +  harmonic
| x  Mute note
Tap to rate this tab
# A B C D E F G H I J K L M N O P Q R S T U V W X Y Z