Song name
# A B C D E F G H I J K L M N O P Q R S T U V W X Y Z

Unknown Mortal Orchestra - Jello And Juggernauts tab

-------------------------------------------------------------------------------
                Unknown Mortal Orchestra - Jello and Juggernauts    
-------------------------------------------------------------------------------
Tabbed by: Tim van Kester
E-mail: timvankester@gmail.com  

Tuning: 1/2 step down
----------------------------------------

Fun song. These are basically all parts.


Intro
e|---------------------------------------------------------------------------|
B|-7--9--9--6--7---12------------9--------7---------1~-----2~-----9~---------|
G|---------------------11--9--11----9--8-----9--8----------------------------|
D|---------------------------------------------------------------------------|
A|---------------------------------------------------------------------------|
E|-7--7--7--6--7---11--11--9--9--9--9--7--7--7--7---2~-----2~-----9~---------|

e|---------------------------------------------------------------------------|
B|-------------------7~-------------------5~---4h5p4\2-----------------------|
G|-8h9p8------------------6h8p6------------------------4-3-4---4~---3-4------|
D|-------11-9-8-----------------9-8-6----------------------------------------|
A|--------------11--------------------9--------------------------------------|
E|-------------------7~-------------------3~-------------------2~------------|

e|---------------------------------------------------------------------------|
B|-2t4--------5/7-----------5~---5/7--5-4-5-----4~---4/5-4-3-4---------------|
G|------4---------8-------------------------6--------------------4--4---3-4--|
D|--------5---------9-7-6----------------------------------------------------|
A|---------------------------------------------------------------------------|
E|--------------------------4~------------------2~------------------3--------|

e|-------------------|
B|-4---5-------------|
G|---5---6--7~---8~--|
D|-------------------|
A|-------------------|
E|----------7~---7~--|

Verse
e|-9---7-------5---9---7---5-------------------------------------------------|
B|-7---5---4---3---7---5---3---4--6------------------------------------------|
G|-8---6---4---4---8---6---4---4--6------------------------------------------|
D|--------------------------------6------------------------------------------|
A|--------------------------------4------------------------------------------|
E|-7---5---4---3---7---5---3---4---------------------------------------------|

 
Chorus
e|-7---4-----------4-----------------7~---7---4-------4--------------------9~|
B|---------7---4-------7--4--7--2/4--5~-----------7-7-----2/4--------------7~|
G|-----------------------------------6~------------------------6--4--6-----8~|
D|----------------------------------------------------------------------6----|
A|---------------------------------------------------------------------------|
E|-----------------------------------5~------------------------------------7~|



************************************

| /   slide up
| \   slide down
| h   hammer-on
| p   pull-off
| ~   vibrato
| +   harmonic
| x   Mute note
| b   Bend
| pb  Pre-bend
| br  Bend release
| pbr Pre-bend release
| brb Bend release bend

************************************
Tap to rate this tab
# A B C D E F G H I J K L M N O P Q R S T U V W X Y Z