Song name
# A B C D E F G H I J K L M N O P Q R S T U V W X Y Z

Unknown Mortal Orchestra - So Good At Being In Trouble tab

-------------------------------------------------------------------------------
           Unknown Mortal Orchestra - So Good At Being In Trouble
-------------------------------------------------------------------------------
Tabbed by: Tim van Kester
E-mail: 

Tuning: 1/2 step down

I used an acoustic performance I found on youtube, so I'm not sure whether
it is similar to the studio version or not. 

Intro
e|---------------------------|
B|---------------------------|
G|---------------------------|
D|-1h3---1-------------------|
A|----------1h3--1-----1h3---|
E|------------------4--------|

Verse: These are basically all chords used. Some are repeated two or three
times, some are plucked in some order. Give it your own flavour.
e|-----------------------4-----4---6---8------------|
B|-6---------------------4-----2---4---6---9---9----|
G|-6----------------6----5-----3---5---6---8---10---|
D|-6-----6--8--10---6----6-----------------8---10---|
A|-4---------------------6--------------------------|
E|-------4--6--8----6----4-----2---4---6---8---9----|

Intro and verse repeated once, then

e|-----------------------------------0---------------------------------------|
B|-------------------------4----0----0----8----------------------------------|
G|-------------------------4----3----1----8----------------------------------|
D|-1h3---1-----------------4----4----2----8----------------------------------|
A|----------1h3--1-----1---2----4----2----6----------------------------------|
E|------------------4-----------2----0---------------------------------------|

Chorus (During 'She was', still play last chord of previous bar)
e|-9-----6----0--4------------9----7----6------------------------------------|
B|-7-----4----0--2------------7----5----4---4--------------------------------|
G|-8-----4----1--3----(x3)----8----6----4---5--------------------------------|
D|------------2-----------------------------4--------------------------------|
A|------------2--------------------------------------------------------------|
E|-7-----4----0--2------------7----5----4---4--------------------------------|

And then he repeats everything a couple of times.


************************************

| /   slide up
| \   slide down
| h   hammer-on
| p   pull-off
| ~   vibrato
| +   harmonic
| x   Mute note
| b   Bend
| pb  Pre-bend
| br  Bend release
| pbr Pre-bend release
| brb Bend release bend

************************************
Tap to rate this tab
 
# A B C D E F G H I J K L M N O P Q R S T U V W X Y Z