Song name
# A B C D E F G H I J K L M N O P Q R S T U V W X Y Z

Unknown Mortal Orchestra - Swim And Sleep Like A Shark tab

-------------------------------------------------------------------------------
                Unknown Mortal Orchestra - Swim And Sleep (Like A Shark)    
-------------------------------------------------------------------------------
Tabbed by: Tim van Kester
E-mail: timvankester@gmail.com  

Tuning: 1/2 step down
----------------------------------------

Fun song. These are basically all parts.


Intro
e|---------------------------------------------------------------------------|
B|-9-----9----10-9\7--7-----9--6------10----10----12/14---14---16--13--------|
G|--------------------------------6------------------------------------------|
D|---------------------------------------------------------------------------|
A|-7---7---7-----7\5--5---5----4------9---9----9----------11-------11--------|
E|---------------------------------------------------------------------------|

e|-------------------------0-----------------------4---------------4---------|
B|-------5--------4----0-----------2-------------2-----2-------4-----4-------|
G|---6--------4----------2----1----2--1--------3---------3-------4-----4-----|
D|-----6--------4-------------2----2--2----------------------------------4---|
A|-4--------2--------0--------2----0--2----------------------2---------------|
E|----------------------------0-------0------2-------------------------------|

e|-------------------------0-------------|
B|-------5--------4----0-----------2-----|
G|---6--------4----------2----1----2--1--|
D|-----6--------4-------------2----2--2--|
A|-4--------2--------0--------2----0--2--|
E|----------------------------0-------0--|

e|-------0-----------------0---------------------------------------0---------|
B|-------5--------4----0-----------2---------------4-----------0-----0-------|
G|---6--------4----------2----1----2--1--------4-----4-----------2-----2-----|
D|-----6--------4-------------2----2--2----------4-----4---------------------|
A|-4--------2--------0--------2----0--2------2---------------0-----------0---|
E|----------------------------0-------0--------------------------------------|

e|-----------|
B|------2----|
G|-1----2--1-|
D|-2----2--2-|
A|-2----0--2-|
E|-0-------0-|

Return to intro and play everything above again. Then:

e|---------------------------------------------------------------------------|
B|-9-----9----10-9\7--7-----9--6------10----10----12/14---14---16--13--------|
G|--------------------------------6------------------------------------------|
D|---------------------------------------------------------------------------|
A|-7---7---7-----7\5--5---5----4------9---9----9----------11-------11--------|
E|---------------------------------------------------------------------------|

e|---------------17--------------------16--------------------14--------------|
B|-17------17-------17---16------16-------16---14------14-------14---12------|
G|---------------------------------------------------------------------------|
D|---------------------------------------------------------------------------|
A|-16---16----16---------14---14----14---------12---12----12---------11---11-|
E|---------------------------------------------------------------------------|

e|-------12-----------------10----------------9------------------------------|
B|-12-------12---10----10------10---9-----9-----9---7---5-7-9-10---10---12-9-|
G|---------------------------------------------------------------------------|
D|---------------------------------------------------------------------------|
A|----11---------9---9----9---------7---7---7-------5---4-5-7-9-----9---11-7-|
E|---------------------------------------------------------------------------|


************************************

| /   slide up
| \   slide down
| h   hammer-on
| p   pull-off
| ~   vibrato
| +   harmonic
| x   Mute note
| b   Bend
| pb  Pre-bend
| br  Bend release
| pbr Pre-bend release
| brb Bend release bend

************************************
Tap to rate this tab
 
# A B C D E F G H I J K L M N O P Q R S T U V W X Y Z