Song name
# A B C D E F G H I J K L M N O P Q R S T U V W X Y Z

Unknown Mortal Orchestra - Blues In A tab

Blues in A (bass)
---------------------------------------------7-----5------------5-----7----|
--------7-----5-----------5---7--------------------------------------------|
--------------------7------------------5-----------------7-----------------|
-----5--------------------------------------------------------------------|
4 times                                                 2 times, then go back to 1
section and do it 2 times
--------------9----7----------7-----9----|
-----------------------9-----------------|
----7------------------------------------|
-----------------------------------------|
Then do this 1 time and do the 2 section once and the 1 section 1 time, now start all over.

This is blues in A tabbed for bass, have fun go play this with a good guitarist to 
practice soloing
Tap to rate this tab
 
# A B C D E F G H I J K L M N O P Q R S T U V W X Y Z