Song name
# A B C D E F G H I J K L M N O P Q R S T U V W X Y Z

Unknown World - Get Over It tab

STANDARD TUNNING

Intro          (played really fast)
---------------------------------------------------------------------------
---------------------------------------------------------------------------
-55555555-2222-------------------------------------------------------------
-55555555-2222-55----------------------------------------------------------
-33333333------55----------------------------------------------------------
---------------33------------------------------play this 4 times-----------

verse
------------------------------------------------------
------------------------------------------------------
-2-----55-2-------------------------------------------
-3-----55-3-----55------------------------------------
-3-xxx-33-3-xxx-55------------------------------------
----------------33------------------------------------play this 5 time
when i make the interlude ill submit it

tabbed by chris g.
Tap to rate this tab
# A B C D E F G H I J K L M N O P Q R S T U V W X Y Z