Song name
# A B C D E F G H I J K L M N O P Q R S T U V W X Y Z

Unknown World - Instrumental 2 tab

Standard tunning.    I think i made up a pretty good instrumental

^=arrow
Riff 1

E---------------------------------------------------------------------
B---------------------------------------------------------------------
G---------------------------------------------------------------------
D--55-44--55--44------------------------------------------------------
A--22-22--22--22--55--44--55--44--------------------------------------
E-----------------22--22--22--22--------------------------------------

Riff 2

E---------------------------------------------------------------------
B---------------------------------------------------------------------
G---------------------------------------------------------------------
D--55-4444--55--4444--------------------------------------------------
A--22-2222--22--2222--55--4444--55--4444------------------------------
E---------------------22--2222--22--2222------------------------------

Riff 3

E--------------/------------------------------------------------------
B-------------/-------------------------------------------------------
G----------- /--------------------------------------------------------
D--55-------/--5---------2--------------------------------------------
A--33 5555-/---3--5-3333-2--------------------------------------------
E-----3333/-------3-1111-0--:play the 0/2/2 on the last note----------
      ^           ^
play 3 times    play 4 times.  on the 4th 1 play the 0/2/2


thats it!    any questions email me at grantc1020@aol.com  rock on!!!
Tap to rate this tab
# A B C D E F G H I J K L M N O P Q R S T U V W X Y Z