Song name
# A B C D E F G H I J K L M N O P Q R S T U V W X Y Z

Unleashed - Open Wide tab

B-E-A-D-F#-B


------------------------|
------------------------|
--4-4-5--(5)--4-4-5-----|
--2-2-3--(3)--2-2-3-3---|
--------------------1---|
------------------------|

---------------------|
---------------------|
--------3------------|
--2--3--3------------|
--2--3--1--33-33-----|
--0--1-----11-11-----|
           .. ..

-----------------------------------------------------------|
-----------------------------------------------------------|
------9-----------------9---------10-9------9--------------|
----9---9-----10------9---9----10---------9---9----10-9----|
--7--------8--------7--------8----------7--------8---------|
-----------------------------------------------------------|

---------------------------|
---------------------------|
---------3-----------3-----|
---2--3--3--3--2--3--3--3--|
---2--3--1--3--2--3--1--3--|
---0--1-----1--0--1-----1--|
Tap to rate this tab
# A B C D E F G H I J K L M N O P Q R S T U V W X Y Z