Song name
# A B C D E F G H I J K L M N O P Q R S T U V W X Y Z

Unleashed - And The Laughter Has Died tab

Tuning: 2.5 steps down (B)


Riff:1a                  Riff:1b		     Riff:2
|-----------------------|---------------------------|------------------|
|-----------------------|---------------------------|------------------|
|-----------------------|---------------------------|------------------|
|-9-------10--9---------|---------------------------|---------------888|
|-7---7-8-8---7---8-7-3-|-77------888--77-----------|-----777---1010---|
|---0-5-6-------0-6-5-1-|---005566-------665544-111-|-0066----88-------|

Riff:3			 Riff:4				    Riff:5
|-----------------------|----------------------------------|-----------|
|-----------------------|----------------------------------|-----------|
|-----------------------|----------------------------------|-----------|
|-9---10-6-9-----10---9-|----------------------------------|--------3--|
|-7-8-8--4-7-8-9----8---|-77-----55------77-----55-----888-|-2--1-0-3--|
|---6--------6----------|---88777--66555---88777--66555----|-0------1--|
Tap to rate this tab
# A B C D E F G H I J K L M N O P Q R S T U V W X Y Z