Song name
# A B C D E F G H I J K L M N O P Q R S T U V W X Y Z

Unloco - Becoming 1 tab

standard tuning
clean


[-----------------------------------] [-------------------]                   
[-0----0----0-0----0-0----0-0---0-0-] [---0-0----0-0----0-]
[-9/11---11-----11-----11-----9-----] [12-----12-----12---]
[-----------------------------------] [-------------------]
[-----------------------------------] [-------------------]
[-----------------------------------] [-------------------]

[----------------------------------------------------------]
[-0----0----0-0----0-0----0-0-----0-0-----0-0---0---0---0--]
[-9/11---11-----11-----11-----9/7-----7/9-----9---9---9----]
[----------------------------------------------------------]
[----------------------------------------------------------]
[----------------------------------------------------------]

play this tab 6x soft then 3x times loud

then around 4x for riff

Chorus (distorted)

[-------------------------]          [-------------------------]
[-------------------------]          [-------------------------]
[-4-444-4-444-5-555-7-777-]repeat 2x [-4-444-4-444-------------]       
[-------------------------]          [-------------5-555-7-777-]
[-2-222-2-222-3-333-5-555-]          [-2-222-2-222-------------]
[-------------------------]          [-------------3-333-5-555-]

[------------------------]
[------------------------]
[-4-444-4-444-5-555-7-777]
[------------------------]
[-2-222-2-222-3-333-5-555]
[------------------------]

Then the riff again 4 bout 4x...

Chorus again...

Bridge (Distorted)

[-------------------------------------------------]
[-------------------------------------------------]
[-------------------------------------------------]
[-4-4--4-4--5-4--5-4--5-4--4-4--4-4--5-4--4-55555-]
[-2-2--2-2--3-2--5-2--3-2--2-2--2-2--3-2--2-55555-]
[-------------------------------------------------]

second half of bridge

[---------------------]
[---------------------]
[---------------------]
[-5-444-4-54-444------]
[-3-222-2-32-222------]
[---------------3-53-2]

the rest is pretty much the chorus over and over again... goodluck!
E-mail me at www.ottawaboylovesya@hotmail.com 4 ne questions... 
I'm workin on sum extra songs soon
Tap to rate this tab
# A B C D E F G H I J K L M N O P Q R S T U V W X Y Z