Song name
# A B C D E F G H I J K L M N O P Q R S T U V W X Y Z

Unloco - Crashing tab

Unloco
"Crashing"
From the album "Becoming I"
2003 Maverick Records
Tabbed by Eric Dorcey

Drop B (High to low: Db, Ab, E, B, Gb, B) or
       (High to low: C#, G#, E, B, F#, B)

This is kind of close to the rest of the versions. 
I changed a few things to make it sound better (in my opinion).
And added some lead parts.
NOTE: The parts where there is only one tab is where both guitars play the same part OR one guitar rests.


Intro:
Db|---------------------------------|
Ab|---------------------------------|
E |---------------------------------|
B |---------------------------------|
Gb|-7-7-7-8-8-8-7-7-7-8-8-8-7-7-8-8-|
B |-0-0-0-0-0-0-0-0-0-0-0-0-0-0-0-0-|

Db|---------------------------------|
Ab|---------------------------------|
E |-----------------------------7*~-|(* = Natural Harmonic)
B |---------------------------------|
Gb|-7-7-7-8-8-8-7-7-7-8-8-8-7-7-----|
B |-0-0-0-0-0-0-0-0-0-0-0-0-0-0-----|



Main/Chorus:
Db|----------------------------------------------------|
Ab|----------------------------------------------------|
E |-7-7---9-10-10-10-10-10-10-10-10-10-----------------|
B |-0-0---X-X--X--X--X--X--X--X---8--8--10-10-10---3-5-|
Gb|-0-0---7/8--8--8--8--8--8--8---8--8--10-10-10---3-5-|
B |-0-0---0----0--0--0--0--0--0---8--8--10-10-10---3-5-|


Verse:
Db|---------------------------------------------
Ab|---------------------------------------------
E |---------------------------------------------
B |---------------------------------------------
Gb|---------------------------------------------
B |-12-12-12-12-12-12-12-12-12--7-7-7-7-7-7-7-7-
    *  *  *  *  *  *  *  *  *   * * * * * * * * 

(cont.)
---------------------------------------|
---------------------------------------|
---------------------------------------|
---------------------------------------|
---------------------------------------|
-8-8-8-8-8-8-8-8--10-10-10-10-10-10-10-|
 * * * * * * * *   *  *  *  *  *  *  *


Pre-Chorus
Db|---------------------|
Ab|---------------------|
E |---------------------|
B |--10-10-10--10-10-10-|
Gb|--10-10-10--10-10-10-|
B |--10-10-10--10-10-10-|


Verse 2
Db|----------------------------------------------------|
Ab|----------------------------------------------------|
E |----------------------------------------------------|
B |-12-12-12-12-12---7-7-7-7---8-8-8-8-8---10-10-10-10-|
Gb|-12-12-12-12-12---7-7-7-7---8-8-8-8-8---10-10-10-10-|
B |-12-12-12-12-12---7-7-7-7---8-8-8-8-8---10-10-10-10-|


Bridge 1:
Guitar 1
Db|------------------------|
Ab|------------------------|
E |------------------------|
B |-0-0-0--10-0--0-0-10-0--|
Gb|-0-0-0--10-0--0-0-10-0--|
B |-0-0-0--10-0--0-0-10-0--|
                 * *

Guitar 2 (w/ Wah) I didn't feel like tabbing this all out note by note.
It's essentially just one note that gets bent up and down. 
Each time you bend, hit the wah pedal.
Sometimes high, sometimes about half-way. 
Just listen to the part and play along and you'll get the idea.
Db|-----------------------------------|
Ab|--7b8-------------------------7b8--|
E |---------OR YOU COULD DO------x----|
B |---------THIS ---> IF YOU-----4b5--|
Gb|---------WANT A FULLER SOUND-------|
B |-----------------------------------|


Bridge 2 (Intro):
Db|--------------------------------------|
Ab|--------------------------------------|
E |--------------------------------------|
B |--------------------------------------|
Gb|-5-5-5--8-8-8--5-5-5--8-8-8--5-5-8-8--|
B |--------------------------------------|
    * * *  * * *  * * *  * * *  * * * * 

Bridge 2 (Main):
Guitar 1
Db|--------------------------------------|
Ab|--------------------------------------|
E |--------------------------------------|
B |-0-0-0--3-3-3--0-0-0--3-3-3--0-0-3-3--| x3
Gb|-0-0-0--3-3-3--0-0-0--3-3-3--0-0-3-3--|
B |-0-0-0--3-3-3--0-0-0--3-3-3--0-0-3-3--|

Db|--------------------------------------|
Ab|--------------------------------------|
E |--------------------------------------|
B |-0-0-0--3-3-3--0-0-0--3-3-3--5-5-5-5--| x1
Gb|-0-0-0--3-3-3--0-0-0--3-3-3--5-5-5-5--|
B |-0-0-0--3-3-3--0-0-0--3-3-3--5-5-5-5--|


Guitar 2
Db|--------------------------------------------|
Ab|--------------------------------------------|
E |-9-9-9-10-10-10--9-9-9-10-10-10--9-9-10-10--|
B |-x-x-x--x--x--x--x-x-x--x--x--x--x-x--x--x--| x3
Gb|-7-7-7--8--8--8--7-7-7--8--8--8--7-7--8--8--|
B |--------------------------------------------|


Db|----------------------------------------------|
Ab|----------------------------------------------|
E |-9-9-9-10-10-10--9-9-9-10-10-10--12-12-12-12--|
B |-x-x-x--x--x--x--x-x-x--x--x--x---x--x--x--x--| x1
Gb|-7-7-7--8--8--8--7-7-7--8--8--8--10-10-10-10--|
B |----------------------------------------------|

 
Interlude:
Guitar 2 (Guitar 1 plays regular chorus)                             
Db|--------------------------
Ab|--------------------------
E |-7-7--9-9-9-9-10-10-10-10-
B |-0-0--x-x-x-x--x--x--x--x-
Gb|-0-0--7-7-7-7--8--8--8--8-
B |-0-0----------------------

(cont.)
---------------------------------------------------|
---------------------------------------------------|
-12-12-12-12-12-12-12-12--14-14-14-14-14\12-12-12--|
--x--x--x--x--x--x--x--x---x--x--x--x--x--x--x--x--|
-10-10-10-10-10-10-10-10--12-12-12-12-12\10-10-10--|
---------------------------------------------------|

End:
Guitar 1
Db|----|
Ab|----|
E |----|
B |-0~-|
Gb|-0~-|
B |-0~-|

Guitar 2
Db|----|
Ab|----|
E |-7~-|
B |-x--|
Gb|-5~-|
B |----|
Tap to rate this tab
# A B C D E F G H I J K L M N O P Q R S T U V W X Y Z