Song name
# A B C D E F G H I J K L M N O P Q R S T U V W X Y Z

Unlord - Inferno Bizarre tab

UNLORD

Inferno Bizarre

From: Schwarzwald

Displeased Records 1997



Tune down 1 step.



Riff A: Trem Pick 4X

|-------------------------------|

|--4-2-4-5-7-5-4-2-4-2-4-5-0--|

|-------------------------------|

|-------------------------------|



Riff B (Verse 1) : Trem Pick 8X

|----------------------|

|--9999999977777777--|

|--7777777755555555--|

|----------------------|



Riff C (Verse 2): Trem Pick 2X

|----------------5-4---------------------|

|--2-4-5-2-4-5-------2-4-5-2-4-5--------|

|-----------------------------------3-2---|

|-----------------------------------------|



Riff A2: 2X

|--6--4--6--7--9--7--6--4--6--4--6--7--2--|

|--4--2--4--5--7--5--4--2--4--2--4--5--0--|

|-------------------------------------------|

|-------------------------------------------|



Riff A: 2X

Riff C: 2X



Riff D (Hold notes): 2X

|------------------|

|--7---10--9---8--|

|--5---8---7---6--|

|------------------|



Riff D: Trem Pick 4X



Riff E (Double bass frenzy): Trem Pick 12X

|--555555555555666666666666--|

|-------------------------------|

|-------------------------------|

|-------------------------------|



Riff D: Trem Pick 4X

Riff A: 3X

Riff A2: 1X

END



Tabbed by: macabre@interlog.com
Tap to rate this tab
 
# A B C D E F G H I J K L M N O P Q R S T U V W X Y Z