Song name
# A B C D E F G H I J K L M N O P Q R S T U V W X Y Z

Unnatural Helpers - Vox Humana tab

This song is p easy and very short with only two sections really.

e|----------|
B|----------|
G|----------|
D|-8--8-66--|
A|-8--8-66--|
E|-6--6-44--|

That chord progression is played a couple times followed by

e|------------|
B|------------|
G|------------|
D|-----8--10~-|
A|------------|
E|-6~---------|
That is played like two or three times then goes back to the chord progression. That is 
basically the whole song. Listen to the song for the rhythm and etc.

Link to band: http://hardlyart.com/unnaturalhelpers.html
Tap to rate this tab
# A B C D E F G H I J K L M N O P Q R S T U V W X Y Z